Oops, an error
Loading. Please wait.

El Embrujo Tab

version 1
version 1

Whole song

34 views 1 this week
no commentswrite comment
1 2 3 4 5
3 more votes to show rating
add to favorites
launch autoscroll
font size
0
reset
how to read this tab
guitar tuner
×
Best way to learn
"El Embrujo"
Autoscroll
slow
fast
+/-
esc
set tempo
stop
INTRO:
          Dm
e|------10-10-12-13-----10-10-12-13----10-10-12-13-----10--10---15-17-18-
b|-10-10-----------10-10-----------10-10----------10-10--10--10----------
G|-----------------------------------------------------------------------
          Gm
e|------15-10-17-18-----15-15-17-18-----15-15-17-18-----15--15---12-13-15-
b|-15-15-----------15-15-----------15-15-----------15-15--15--15----------
G|------------------------------------------------------------------------
          C                                                   F
e|------12-13-15-----12-13-15-----12-13-15--12-12-12--18-17-17-17-17-17-17-
b|-13-13--------13-13--------13-13--------13-13--13-13---------------------
G|-------------------------------------------------------------------------

sigue aqui por falta de espacio
                    A
e|-18-17-17-17-18-17-17-17-
b|-------------------------
G|-------------------------

repetir dos veces intro

Dm                                                        Gm
Hoy igual que ayer estoy aqui frente al mar esperando por ti
                                             Dm
no tardes mas por favor que me desespero sin ti
                                         A
sabes bien corazon, lo que significas en mi.

Dm                                                  Gm
Que tambien por ti comentaran que vivo pendiente de ti
                                                        Dm
y si no estas no soy feliz sabes bien que significas en mi
                                       A
corazon ven a mi, yo me desespero por tiii!.

Dm                        Gm
Dicen que como te quiero tanto
                     C
yo que tuve tantos amores
                    F    A          Dm
seguro me has embrujado oooo! que importa.

CORO:
        F                                    Gm
Si es asi dejalo ahi hechizado encantado por ti,
                                         Dm
que mas da, soy feliz no no rompas ese embrujo mujer
 A                         Dm
dejame por siempre junto a tii!.
        F                                    Gm
Si es asi dejalo ahi hechizado encantado por ti,
                                         Dm
que mas da, soy feliz no no rompas ese embrujo mujer
 A                         Dm
dejame por siempre junto a tii!.
Suggest correction
Give kudos to tab author, rate the tab!
1 2 3 4 5
comments
print report bad tab
guest
You may want to rate the tab now too:
select rating
Wanna post a correction for this tab? Suggest correction