Oops, an error
Loading. Please wait.

Juramento Tab

version 2
version 2

Whole song

11 views 1 this week
no commentswrite comment
1 2 3 4 5
3 more votes to show rating
add to favorites
×
Save as Personal and add changes to this tab that will be seen only by you. Learn more ›
×
You can save this tab as Personal to edit and correct it or add notes. All changes will be seen only by you. Learn more »
save as personal
new!
launch autoscroll
font size
0
reset
how to read this tab
guitar tuner
Autoscroll
slow
fast
+/-
esc
set tempo
stop
bueno aca les mando la correccion de la q
estaba esta está mas completa y suena mejor
espero q les guste y no se preocupen
q tengo un buen repertorio q proximamente
lo estare enviando..

Dedicada para Dolly la chika mas linda del universo que
esta ves no encontre palabras para poder decirte lo q
significas para mi...
Eres mi princesa, Eres tierna, eres dulce
*****************************************
Dando cátedras de como se dicen cosas tiernas
al oido de las feminas, todo es sencillo cuando
tu eres mi inspiracion.

1) |--5-3--1-1-1-3-|--1-3--5-3-5-3-5-3-1---
2) |-3------3-3-3--|-3------------------3--
3) |---------------|-----------------------(x2)


1) |-1-1-1-1/3-1--0-0-------|-3-3-3-3/5-3-3-5-3-1--
2) |------------------3-3-1-|--------------------3-
3) |------------------------|----------------------(2)

1) ----------|--1---|1-1---------------|6-5-3--2-3-5-
2) -5--4-4-2-|-2----|-3-3-6--5-5-3-----|-------------
3) ----------|------|------------------|-------------
   juramentos ya no quiero juramentos promesas de mujer

1) ------------1-2------------------------
2) -2-5-4-4-2------5-4-4--2----------------
3) ---------------------------------------
   como hojas secas se las lleva el viento

1) --------------------|--1-1-0--0-1-3---|
2) -6-6-4-5-4-4-2------|-------3---------|
3) --------------------|-----------------|
  dijiste que me amabas q era todo para ti

1) --------------------|0-1-3-1--3/4------
2) -6-6-4-5-3-3-1------|-------3----------
3) --------------------|------------------
   dijiste tantas cosas que como un tonto crei

aca les dejo mi cel porsiaca cualquier cosa 990855469
Suggest correction
Give kudos to tab author, rate the tab!
1 2 3 4 5
comments
print report bad tab
guest
Wanna post a correction for this tab? Suggest correction