Oops, an error
Loading. Please wait.

Chiquita Tab

53 views 1 this week
no commentswrite comment
1 2 3 4 5
3 more votes to show rating
add to favorites
launch autoscroll
font size
0
reset
how to read this tab
guitar tuner
Autoscroll
slow
fast
+/-
esc
set tempo
stop
Help us to improve Ultimate-Guitar.com Take our survey!
×
Este es el intro de la cancion con guitarra.
Espero que les sirva.


1|-------12--------------13-15-|-------12----------------------|
2|----13--------13-12-15-------|----13-------13-12-15-13-12----|
3|-14--------14----------------|-14-------14-------------------|
4|-----------------------------|-------------------------------|
5|-----------------------------|-------------------------------|
6|-----------------------------|-------------------------------|


1|-------8-12-|----13-15-15-|------8-12----13-15-----|
2|--8-10------|-12----------|-8-10------12-----------|
3|------------|-------------|------------------------|
4|------------|-------------|------------------------|
5|------------|-------------|------------------------|
6|------------|-------------|------------------------|

1|-------8-12-|-------10---------------------------|
2|--8-10------|-10-12----12-10---------------------|
3|------------|-----------------12/14--------------|
4|------------|------------------------------------|
5|------------|------------------------------------|
6|------------|------------------------------------|

Cualquier critica hagan me saber.
Gracias, Rodrigo 1 de Noviembre, 2011
Suggest correction
Give kudos to tab author, rate the tab!
1 2 3 4 5
comments
print report bad tab
guest
You may want to rate the tab now too:
select rating
Wanna post a correction for this tab? Suggest correction