Oops, an error
Loading. Please wait.

Corazoncito Tab

33 views 1 this week
no commentswrite comment
1 2 3 4 5
3 more votes to show rating
add to favorites
launch autoscroll
font size
0
reset
how to read this tab
guitar tuner
×
Best way to learn
"Corazoncito"
Autoscroll
slow
fast
+/-
esc
set tempo
stop
Aca les paso el intro y solo de la cancion 'Corazoncito'
por el Grupo Karicia.
Tambien la toco el Grupo Guinda. (Busquenlo en youtube)


1|----------9-9-|----------9-9-12-12-9-9-|-9-14-12-14-12-9-7-9-9-|
2|-------10-----|-------10---------------|-----------------------|
3|----11--------|----11------------------|-----------------------|
4|-11-----------|-11---------------------|-----------------------|
5|--------------|------------------------|-----------------------|
6|--------------|------------------------|-----------------------|


1|-7-9-7-9-7-----------------|-------------------|-------------|
2|-----------9-7-9-9---------|--10-12-10---------|-------------|
3|-------------------9-9-7-9-|-----------11-9-11-|-9-9-11------|
4|---------------------------|-------------------|-------------|
5|---------------------------|-------------------|-------------|
6|---------------------------|-------------------|-------------|


1|----------9-------------------|----------9---------------------|
2|----10-12---12-10-12-10-12-14-|----10-12---12-10-12-10-9-7-----|
3|-11---------------------------|-11-----------------------------|
4|------------------------------|--------------------------------|
5|------------------------------|--------------------------------|
6|------------------------------|--------------------------------|


1|----------9----9----9-|-12-9-12-9-10-9-|----------9-----------------|
2|----10-12---12---12---|----------------|----10-12---12-10-12-10-9-7-|
3|-11-------------------|----------------|-11-------------------------|
4|----------------------|----------------|----------------------------|
5|----------------------|----------------|----------------------------|
6|----------------------|----------------|----------------------------|


Gracias.
Rodrigo 1 de Noviembre, 2011
Suggest correction
Give kudos to tab author, rate the tab!
1 2 3 4 5
comments
print report bad tab
guest
You may want to rate the tab now too:
select rating
Wanna post a correction for this tab? Suggest correction