Oops, an error
Loading. Please wait.

Desesperado Tab

version 1
version 1

Whole song

58 views 3 this week
no commentswrite comment
1 2 3 4 5
3 more votes to show rating
add to favorites
launch autoscroll
font size
0
reset
how to read this tab
guitar tuner
×
Best way to learn
"Desesperado"
Autoscroll
slow
fast
+/-
esc
set tempo
stop
1------------7-7-7-7-7-7-7-7
2------7-8---8-8-8-8-8-8-8-8
3----5----------------------
4---------------------------
5---------------------------
6---------------------------


1-----7->>8------8-----7-7-7
2-10--8->>10--10---10--8-8-8
3--9-----------------------9
4---------------------------    (x2)
5---------------------------
6---------------------------

----------------------------------------

1-7--------------------7--------------
2---10-8-7--7-7-7--------10--8-7------
3--------------------------------9-9-9
4-------------------------------------
5-------------------------------------
6-------------------------------------


1-7--------------------7--------------
2---10-8-7--7-7-7--------10--8-7------
3--------------------------------9-7-9
4-------------------------------------    (x2)
5-------------------------------------
6-------------------------------------

 Em                           Am            Em
 hoy al despertar solo en mi cama , con lagrimas.

 Em                            Am             Em
 por el recuerdo de nuestras noches y tu no estas
.
         C                       D            Em
 la tristeza imbade aqui en mi pecho , este amor

       C             D                 Em     E7
 del miedo q no regreses , me haces llorar.


 Am            D
 desesperado,desesperado.

                      G
 estoy aqui solo y sin ti

           Em                  Am
 sino regresas entre copas ahogare

       B           Em
 este amor,este amor


yo solo agrego el punteo la letra se la afane
 a miguel que la hizo para la versión de una de kal.
 y yo se la dedico a todos los cumbieros de las termas de rio hondo loco.

               Claudio coria       de una
Suggest correction
Give kudos to tab author, rate the tab!
1 2 3 4 5
comments
print report bad tab
guest
You may want to rate the tab now too:
select rating
Wanna post a correction for this tab? Suggest correction