Oops, an error
Loading. Please wait.

Desesperado Tab

version 2
version 2

Whole song

33 views 1 this week
no commentswrite comment
1 2 3 4 5
3 more votes to show rating
add to favorites
launch autoscroll
font size
0
reset
how to read this tab
guitar tuner
Autoscroll
slow
fast
+/-
esc
set tempo
stop
Help us to improve Ultimate-Guitar.com Take our survey!
×
Es una corrección a la transcripción de claudio
agregado el punteo final...

1----------7-7-7-7-7-7-7-7-7
2--------8---8-8-8-8-8-8-8-8   (escuchar bien cuantas veces lo hace)
3------9--------------------
4----9----------------------


1--7-7--7]]8---8-8-8-8-8-8-8---8--8-   (devuelta escuchar bien)
2---8---8]]10--10-10-10-10-10---10--
3-----------------------------------


1--7-7-7-7-7-7-7-7---
2--8-8-8-8-8-8-8-8---  (escuchar bien cuantas veces lo hace)
3--------------------


Hace todo de vuelta y después esto


1-7----------------------------
2---10-8-----7-10-7------------  creo q esto lo hace 4, me olvide xD
3--------7--7--------7--9-9-9--


1---------
2---------
3-----7-8-
4--99-----
5---------
6---------


punteo final


1--10h1212-12-12-12-------------------/1010----10-10-10-----------------------
2-------------------12h1313-10-10-10-------13------------13-12-10------------
3----------------------------------------------------------------12-12-12---

1-----------------------------------------------------------------
2---10-12-13-13-13--12-10----------------10-11-12-12-12-10-9-9-9--
3-12----------------------12-11-11-11---12------------------------

repite hasta terminar...
es fácil... algún que otro error debe tener... pero no importa solo
jueguen con la
escala de Em...
PD: posteo este tema.. viejo.. pero nunca deja de sonar, y muchos
grupos lo hacen
algún pedido especial 
Suggest correction
Give kudos to tab author, rate the tab!
1 2 3 4 5
comments
print report bad tab
guest
You may want to rate the tab now too:
select rating
Wanna post a correction for this tab? Suggest correction