Oops, an error
Loading. Please wait.

Hechicera Tab

44 views 3 this week
no commentswrite comment
1 2 3 4 5
3 more votes to show rating
add to favorites
launch autoscroll
font size
0
reset
how to read this tab
guitar tuner
Autoscroll
slow
fast
+/-
esc
set tempo
stop
Help us to improve Ultimate-Guitar.com Take our survey!
×
Estes es el intro de la cancion mas el solo de guitarra.
Escuchen bien el intro.
Hay partes de la cancion que se repiten detras de la voz del cantante.


E|-15-12----15-12-----|-------10--------|-15-12----15-12----|
B|-------12-------12--|-10/12----12-----|-------12-------12-|
G|--------------------|-------------12--|-------------------|
D|--------------------|-----------------|-------------------|
A|--------------------|-----------------|-------------------|
E|--------------------|-----------------|-------------------|

E|-------10-------|
B|-10/12----12----|
G|-------------12-|
D|----------------|
A|----------------|
E|----------------|

E|-------------10-|-------------12--|-------------10-10--|
B|-10-12-10-12----|-10-12-10-12-----|-10-12-10-12--------|
G|----------------|-----------------|--------------------|
D|----------------|-----------------|--------------------|
A|----------------|-----------------|--------------------|
E|----------------|-----------------|--------------------|

E|-------------------|
B|-12-10-12--10------|
G|--------------12-9-|
D|-------------------|
A|-------------------|
E|-------------------|

E|--------------|
B|-------7-8----|
G|-7-7-9--------|
D|--------------|
A|--------------|
E|--------------|

Solo de guitarra
E|-------------------------|-------------------------------|
B|-----8/10-8---10-8----10-|-12-12-10----------------------|
G|-7-9--------9------9-----|-----------12-12-9-9-12-12-12--|
D|-------------------------|-------------------------------|
A|-------------------------|-------------------------------|
E|-------------------------|-------------------------------|


Gracias,
Rodrigo
2 de Noviembre, 2011
Suggest correction
Give kudos to tab author, rate the tab!
1 2 3 4 5
comments
print report bad tab
guest
You may want to rate the tab now too:
select rating
Wanna post a correction for this tab? Suggest correction