Oops, an error
Loading. Please wait.

Si Quieres Tab

28 views 1 this week
no commentswrite comment
1 2 3 4 5
3 more votes to show rating
add to favorites
launch autoscroll
font size
0
reset
how to read this tab
guitar tuner
×
Best way to learn
"Si Quieres"
Autoscroll
slow
fast
+/-
esc
set tempo
stop
Hola a todos los seguidores de caricia aca les dejo
Este tema un saludo para todos los vagos de mi barrio
Y aguante el klan  cualquier cosa escribanme


1---------------------------------------------------------------------
2--------------------------------------------5-6-5----5-6---5-6-5--5-6
3-------------4-5-4----4-5---4-5-4----4-5--7--------7------7-------7--
4----------7---------7------7-------7---------------------------------
5-7-6-5-3-------------------------------------------------------------
6---------------------------------------------------------------------

1---------------------------------------------3-3-------
2---------------------------------------------5-5-------
3-----2-4-2---2-4-----2-4-2-----2-4-----------5-5-------
4--5---------5-------5---------5-----------------5-5----
5-------------------------------------------------------
6-------------------------------------------------------

1---/5-5-5-7-8/10-10-10-10-8-7--7-7-7-8-7-8-5-5
2---------------------------------------------------------
3---------------------------------------------------------
4---------------------------------------------------------     x2
5---------------------------------------------------------
6---------------------------------------------------------

1-----5-8-5---------------------------------------------
2-------------8-5----------------------------------------
3---------------------------------------------------------
4---------------------------------------------------------
5---------------------------------------------------------
6---------------------------------------------------------


cualquier cosa escribanme a
Guillekpo-87@
Suggest correction
Give kudos to tab author, rate the tab!
1 2 3 4 5
comments
print report bad tab
guest
You may want to rate the tab now too:
select rating
Wanna post a correction for this tab? Suggest correction