Oops, an error
Loading. Please wait.

Tu Boquita Perfumada Tab

150 views 1 this week
no commentswrite comment
1 2 3 4 5
3 more votes to show rating
add to favorites
launch autoscroll
font size
0
reset
how to read this tab
guitar tuner
×
Best way to learn
"Tu Boquita Perfumada"
Autoscroll
slow
fast
+/-
esc
set tempo
stop
Hola todos acá estoy de vuelta dejando otro temita


Acordes solm lam

Intro

1---------------------------------------------------
2----10---10-8-8----8-----------10-10-1010----------
3-9-----9--------10---10-7---7-------------9-7-97---
4-------------------------------------------------10  x2
5---------------------------------------------------
6---------------------------------------------------

Esa es la primer parte
La segunda lo hace en la misma nota
Pero mas abajo por eso no la pongo

Riff 1
1-10---10-----------
2----13---13-12-10--
3-----------------12

Riff 2
1-12----12----------
2---15----15-13-12--
3-----------------14

LAm          SOL      riff1
Y tu boquita perfumada
              LAm       riff2
Tu bello cuerpo de mujer
              SOL      riff1
Y al sentirte tan amada
               LAm
Puedes llegar a enloquecer
                SOL
Quiero que me digas cosas bonitas
            LAm
Quiero que me digas junto al oído
           SOL
Porque tú ya tienes cosas bonitas
               LAm
Que siempre e querido

Bueno acá esta el tema cualquier
Duda ya saben escríbanme
A mi dirección guillekpo-87@
Suggest correction
Give kudos to tab author, rate the tab!
1 2 3 4 5
comments
print report bad tab
guest
You may want to rate the tab now too:
select rating
Wanna post a correction for this tab? Suggest correction