Oops, an error
Loading. Please wait.

Cosas Del Amor Bass Tab

17 views 3 this week
no commentswrite comment
1 2 3 4 5
3 more votes to show rating
add to favorites
launch autoscroll
font size
0
reset
guitar tuner
Autoscroll
slow
fast
+/-
esc
set tempo
stop
Help us to improve Ultimate-Guitar.com Take our survey!
×
INTRO.
G---------|---------|---------|---------|---------|---------|----------|
D---------|---------|---------|---------|---------|---------|----------|
A---7--9--|---5--7--|---5--7--|---7--9--|---7--9--|---7--9--|--5----7--|
E--7------|--7------|--5------|--5------|--7------|--7------|----------|


Verso.

G---------|------------|---------|--------|---------|-------------|--------
D---------|------------|---------|--------|---------|-------------|--------
A---7--9--|-----9---7--|--9---7--|-----7--|---5--7--|-----7-------|--2--4--
E--7------|--7----7----|----7----|--7-----|--5------|--5----5--2--|------2-

G--------|
D--------|
A--4--2--|
E---2----|


G---------|------------|---------|--------|---------|-------------|--------
D---------|------------|---------|--------|---------|-------------|--------
A---7--9--|-----9---7--|--9---7--|-----7--|---5--7--|-----7-------|--2--4--
E---------|--7----7----|----7----|--7-----|--5------|--5----5--2--|------2-

G--------|
D--------|
A--4--2--|
E---2----|

G---------|------------|---------|--------|---------|-------------|--------
D---------|------------|---------|--------|---------|-------------|--------
A---7--9--|-----9---7--|--9---7--|-----7--|---5--7--|-----7-------|--2--4--
E---------|--7----7----|----7----|--7-----|--5------|--5----5--2--|------2-

G--------|
D--------|
A--4--2--|
E---2----|


G---------|------------|---------|-------|----------|
D---------|------------|---------|-------|----------|
A---7--9--|-----9---7--|--9---7--|--9----|--5----7--|
E---------|--7----7----|----7----|----7--|----------|


CHORO.

G---------|------------|---------|--------|---------|-------------|--------
D---------|------------|---------|--------|---------|-------------|--------
A---7--9--|-----9---7--|--9---7--|-----7--|---5--7--|-----7-------|--2--4--
E--7------|--7----7----|----7----|--7-----|--5------|--5----5--2--|------2-

G--------|
D--------|
A--4--2--|
E---2----|


INTRO.

G---------|---------|---------|---------|---------|---------|----------|
D---------|---------|---------|---------|---------|---------|----------|
A---7--9--|---5--7--|---5--7--|---7--9--|---7--9--|---7--9--|--5----7--|
E--7------|--7------|--5------|--5------|--7------|--7------|----------|

Verso.

G---------|------------|---------|--------|---------|-------------|--------
D---------|------------|---------|--------|---------|-------------|--------
A---7--9--|-----9---7--|--9---7--|-----7--|---5--7--|-----7-------|--2--4--
E--7------|--7----7----|----7----|--7-----|--5------|--5----5--2--|------2-

G--------|
D--------|
A--4--2--|
E---2----|


G---------|------------|---------|--------|---------|-------------|--------
D---------|------------|---------|--------|---------|-------------|--------
A---7--9--|-----9---7--|--9---7--|-----7--|---5--7--|-----7-------|--2--4--
E---------|--7----7----|----7----|--7-----|--5------|--5----5--2--|------2-

G--------|
D--------|
A--4--2--|
E---2----|

G---------|------------|---------|--------|---------|-------------|--------
D---------|------------|---------|--------|---------|-------------|--------
A---7--9--|-----9---7--|--9---7--|-----7--|---5--7--|-----7-------|--2--4--
E---------|--7----7----|----7----|--7-----|--5------|--5----5--2--|------2-

G--------|
D--------|
A--4--2--|
E---2----|


G---------|------------|---------|-------|----------|
D---------|------------|---------|-------|----------|
A---7--9--|-----9---7--|--9---7--|--9----|--5----7--|
E---------|--7----7----|----7----|----7--|----------|


CHORO.

G---------|------------|---------|--------|---------|-------------|--------
D---------|------------|---------|--------|---------|-------------|--------
A---7--9--|-----9---7--|--9---7--|-----7--|---5--7--|-----7-------|--2--4--
E--7------|--7----7----|----7----|--7-----|--5------|--5----5--2--|------2-

G--------|
D--------|
A--4--2--|
E---2----|


OUTRO.
G---------|---------|---------|---------|---------|---------|----------|
D---------|---------|---------|---------|---------|---------|----------|
A---7--9--|---5--7--|---5--7--|---7--9--|---7--9--|---7--9--|--5----7--|
E--7------|--7------|--5------|--5------|--7------|--7------|----------|
Suggest correction
Give kudos to tab author, rate the tab!
1 2 3 4 5
comments
print report bad tab
guest
You may want to rate the tab now too:
select rating
Wanna post a correction for this tab? Suggest correction