Oops, an error
Loading. Please wait.

Ojitos Hechiceros Bass

114 views 1 this week
no commentswrite comment
1 2 3 4 5
3 more votes to show rating
add to favorites
×
Save as Personal and add changes to this tab that will be seen only by you. Learn more ›
×
You can save this tab as Personal to edit and correct it or add notes. All changes will be seen only by you. Learn more »
save as personal
new!
launch autoscroll
font size
0
reset
guitar tuner
Autoscroll
slow
fast
+/-
esc
set tempo
stop
Intro
E|--7------7--|
A|----7---7---| x3
D|-----7-7----|
G|------------|

E|------|--------|    |-----|--------|
A|---7--|--------| x4 |--9--|-2-5----|
D|--7-9-|-11--9--|    |---9-|----4---|
G|------|---11---|    |-----|-----4--|

Esos tus ojitos
E|------|-----|---5-|-7----|
A|--2-2-|-5---|--7--|--9---| x2
D|---4--|--7--|-7---|---9--|
G|------|---7-|-----|------|

Mira se parecen
E|----7-|----|--7-|----|--7-|----|--7-|--7--|
A|---7--|-7--|-7--|-7--|-7--|-7--|-7--|-7---| x2
D|--7---|--7-|----|--7-|----|--7-|----|-----|
G|------|----|----|----|----|----|----|-----|


E|------|--------|    |-----|--------|
A|---7--|--------| x4 |--9--|-2-5----|
D|--7-9-|-11--9--|    |---9-|----4---|
G|------|---11---|    |-----|-----4--|

Esos tus ojitos
E|------|-----|---5-|-7----|
A|--2-2-|-5---|--7--|--9---| x2
D|---4--|--7--|-7---|---9--|
G|------|---7-|-----|------|

Mira se parecen
E|----7-|----|--7-|----|--7-|----|--7-|--7--|
A|---7--|-7--|-7--|-7--|-7--|-7--|-7--|-7---|
D|--7---|--7-|----|--7-|----|--7-|----|-----|
G|------|----|----|----|----|----|----|-----|

E|--7---|-------|-------|-7----|
A|---9--|-9-----|-9-----|--9---| n veces
D|----9-|--11---|--11---|---9--| juega con quintas
G|------|----11-|----11-|------| agudas o graves

E|--3-5-7------|
A|--------9-9--| x4
D|---------9---|
G|-------------|

E|--7---|-7-10---|
A|---9--|-----9--| n veces
D|----9-|--------|
G|------|--------|

E|----7-|----|--7-|----|--7-|----|--7-|--7--|
A|---7--|-7--|-7--|-7--|-7--|-7--|-7--|-7---| x2
D|--7---|--7-|----|--7-|----|--7-|----|-----|
G|------|----|----|----|----|----|----|-----|

E|------|--------|    |-----|--------|
A|---7--|--------| x4 |--9--|-2-5----|
D|--7-9-|-11--9--|    |---9-|----4---|
G|------|---11---|    |-----|-----4--|

Esos tus ojitos
E|------|-----|---5-|-7----|
A|--2-2-|-5---|--7--|--9---| x2
D|---4--|--7--|-7---|---9--|
G|------|---7-|-----|------|

Mira se parecen
E|----7-|----|--7-|----|--7-|----|--7-|--7--|
A|---7--|-7--|-7--|-7--|-7--|-7--|-7--|-7---| x2
D|--7---|--7-|----|--7-|----|--7-|----|-----|
G|------|----|----|----|----|----|----|-----|

E|--7---|-------|-------|-7----|
A|---9--|-9-----|-9-----|--9---| n veces
D|----9-|--11---|--11---|---9--|
G|------|----11-|----11-|------|

con este final acaba

atte. miauricio gatolar
Suggest correction
Give kudos to tab author, rate the tab!
1 2 3 4 5
comments
print report bad tab
guest
Wanna post a correction for this tab? Suggest correction