Oops, an error
Loading. Please wait.

Pecadora Tab

version 2
version 2

Whole song

121 views 3 this week
no commentswrite comment
1 2 3 4 5
3 more votes to show rating
add to favorites
launch autoscroll
font size
0
reset
how to read this tab
guitar tuner
Autoscroll
slow
fast
+/-
esc
set tempo
stop
Help us to improve Ultimate-Guitar.com Take our survey!
×
GRUPO  NÉCTAR

Desde el cielo y con cariño
Pecadora :

Introducción
e||--9-8-8h9-----9-8-8h9-----8-6-6h8-----8-6-6h8------||
B||-6-------6-6-6-------6-6-6-------6-6-6-------6-6-6-||---Guitarra
G||---------------------------------------------------||

e||-6-4-6-----6-4-6------------------||
B||------4-4-4-----4-4-4-6-6/7-6-4-6-||--Órgano
G||----------------------------------||
 Se REPITE Y e||-6-4-6-||

Nota : El hammer on (h) se puede cambiar con slide(/)

               (riff 1)                  (riff 2)
1]. Dice la gente       que no eres señora ,
            (riff 3)                 (riff 5)
    Dice la gente       que tu eres pecadora ;
                                   (riff 5)
    Por tener tantos amores en la vida ,
    Y que tu cariño esta lleno de mentiras .
°RiFfS*
  ||-----riff 1----||----riff 2------||
 e||-8h9-9-8-6-8-9-||----------------||
 B||---------------||-11-11-9-7-9-11-||

  ||--------riff 3-------||------riff 4------||
 e||-9h11-11--9-8-9-9/11-||-8h9-9-8-9-9-(13)-||
 B||---------------------||------------------||

  ||--riff 5--||
 e||-9-8-6-9--||
 B||----------||
 ( Repetir introducción solo la guitarra y órgano ; 1 ).

cORo:
 Eres pecadora  , mujer pecadora
 pero mi corazón te ama y te adora mas .
 Eres pecadora ,  mujer pecadora ;
 no importa lo que diga el mundo ,
 te amo señora .
  (Repetir Todo )

Trompeta :

e||------4-6------||-----2-4------||--1?2-------||--1-2-1-||-1---1-||
B||-4/6-6---6/7..-||-3/4----4/6..-||-2----2/4-..||-2------||--4-2--||

 Repetir coro 2 veces mas

Bueno aquí de nuevo pues . Mandando lo que sabia de esta canción
que es una de las mejores que crearon nuestros músicos .
Que lamentable que ya sea tarde para enviarlo .
Desde aquí les mando mis mas sentido pésame a la familia de todos los
integrantes del Grupo Nectar .
Su fiel servidor Juan García Ochoa . Hasta siempre NÉCTAR
Suggest correction
Give kudos to tab author, rate the tab!
1 2 3 4 5
comments
print report bad tab
guest
You may want to rate the tab now too:
select rating
Wanna post a correction for this tab? Suggest correction