Oops, an error
Loading. Please wait.

El Gran Conquistador Tab

69 views 3 this week
no commentswrite comment
1 2 3 4 5
3 more votes to show rating
add to favorites
launch autoscroll
font size
0
reset
how to read this tab
guitar tuner
Autoscroll
slow
fast
+/-
esc
set tempo
stop
Esta transcripcion esta dedicada para todos los conquistadores como yo

Para todas mis enamoradas - Por que a todas las tengo felices


/-8-10-11---11-13-10------10---10-11-8----8-------
/----------------------11---------------9---------
/-------------------------------------------------
/-------------------------------------------------
/-------------------------------------------------
/-------------------------------------------------

/-8-10-7----8-10-11----9-8------------------------
/--------------------------11-9-------------------
/-------------------------------------------------
/-------------------------------------------------
/-------------------------------------------------
/-------------------------------------------------

ESTA PARTE ES MAS MOVIDA TIENES QUE TOCARLA MAS RAPIDO

/-8-10-11-11-11-11-13-10----------10-10-10-11-8---
/---------------------------11-11-----------------
/-------------------------------------------------
/-------------------------------------------------
/-------------------------------------------------
/-------------------------------------------------

/-----8-8-8-10-7----8-10-11-11-11-----------------
/-9-9---------------------------------------------
/-------------------------------------------------
/-------------------------------------------------
/-------------------------------------------------
/-------------------------------------------------


DE PACASMAYO - PERU PA'L MUNDO
Suggest correction
Give kudos to tab author, rate the tab!
1 2 3 4 5
comments
print report bad tab
guest
You may want to rate the tab now too:
select rating
Wanna post a correction for this tab? Suggest correction