Oops, an error
Loading. Please wait.

Llora Me Llama Tab

56 views 1 this week
no commentswrite comment
1 2 3 4 5
3 more votes to show rating
add to favorites
launch autoscroll
font size
0
reset
how to read this tab
guitar tuner
Autoscroll
slow
fast
+/-
esc
set tempo
stop
Help us to improve Ultimate-Guitar.com Take our survey!
×
INTRO:


  DO                    SOL        LAm          FA
1)-3-3-3--------------------------------------------------I
2)-------5-5-5-----3-3-3-3-5---3-3-3-5--5-5-5-5-5-6-5-----I
3)------------5-5-5-----5-----5-5--------------------5----I
4)--------------------------------------------------------I
5)--------------------------------------------------------I
6)--------------------------------------------------------I

  DO                    SOL        LAm          FA
1)-3-3-3--------------------------------------------------I
2)-------5-5-5-----3-3-3-3-5----3-3-5--5-5-5-5-5-6-5------I
3)------------5-5-5-----5----3-5-5------------------5--6--I
4)--------------------------------------------------------I
5)--------------------------------------------------------I
6)--------------------------------------------------------I


DO
No era para hacerte enamorar
    SOL
Era solo para un rato estar.
      LAm                      FA
Yo te avise, mi amor yo te avise.
DO
Tu sabias que yo era asi
             SOL
pasion de una noche y despues el fin.
        LAm                    FA
Y yo te ame, mi amor y yo te ame.
                  REm
No va a ser facil asi
                     FA
Que yo este en tus manos.
             DO
Justo tu que acostumbrada estabas
   SOL             LAm
A jugar con otro corazon.
                  REm
Y ya no preguntes mas
               FA
Cual sera la salida.
                    REm
Yo sufri mucho por amor
        FA       SOL
Ahora vivire la vida.

DO
Llora me llama
                   SOL
Implora mi beso de nuevo
         LAm
Me pide ayuda
                      FA
Quien sabe la he de salvar.
DO
Llora me llama
               SOL
Implora por mi amor
                LAm
Me pide ya por favor
           FA
Quizas un dia
        SOL       DO
Yo la vuelva a buscar.

  DO                    SOL        LAm          FA
1)-3-3-3--------------------------------------------------I
2)-------5-5-5-----3-3-3-3-5---3-3-3-5--5-5-5-5-5-6-5-----I
3)------------5-5-5-----5-----5-5--------------------5----I
4)--------------------------------------------------------I
5)--------------------------------------------------------I
6)--------------------------------------------------------I

  DO                    SOL        LAm          FA
1)-3-3-3--------------------------------------------------I
2)-------5-5-5-----3-3-3-3-5----3-3-5--5-5-5-5-5-6-5------I
3)------------5-5-5-----5----3-5-5------------------5--6--I
4)--------------------------------------------------------I
5)--------------------------------------------------------I
6)--------------------------------------------------------I


DO
No era para hacerte enamorar
    SOL
Era solo para un rato estar.
      LAm                      FA
Yo te avise, mi amor yo te avise.
DO
Tu sabias que yo era asi
             SOL
pasion de una noche y despues el fin.
        LAm                    FA
Y yo te ame, mi amor y yo te ame.
                  REm
No va a ser facil asi
                     FA
Que yo este en tus manos.
             DO
Justo tu que acostumbrada estabas
   SOL             LAm
A jugar con otro corazon.
                  REm
Y ya no preguntes mas
               FA
Cual sera la salida.
                    REm
Yo sufri mucho por amor
        FA       SOL
Ahora vivire la vida.

DO
Llora me llama
                   SOL
Implora mi beso de nuevo
         LAm
Me pide ayuda
                      FA
Quien sabe la he de salvar.


DO
Llora me llama
               SOL
Implora por mi amor
                LAm
Me pide ya por favor
           FA
Quizas un dia
        SOL       DO
Yo la vuelva a buscar.

 DO                    SOL        LAm          FA
1)-3-3-3--------------------------------------------------I
2)-------5-5-5-----3-3-3-3-5---3-3-3-5--5-5-5-5-5-6-5-----I
3)------------5-5-5-----5-----5-5--------------------5----I
4)--------------------------------------------------------I
5)--------------------------------------------------------I
6)--------------------------------------------------------I

DO
Llora me llama
                   SOL
Implora mi beso de nuevo
         LAm
Me pide ayuda
                      FA
Quien sabe la he de salvar.


DO
Llora me llama
               SOL
Implora por mi amor
                LAm
Me pide ya por favor
           FA
Quizas un dia
        SOL       DO
Yo la vuelva a buscaaar.
Suggest correction
Give kudos to tab author, rate the tab!
1 2 3 4 5
comments
print report bad tab
guest
You may want to rate the tab now too:
select rating
Wanna post a correction for this tab? Suggest correction