Oops, an error
Loading. Please wait.

Amor Adolescente Tab

67 views 1 this week
no commentswrite comment
1 2 3 4 5
3 more votes to show rating
add to favorites
launch autoscroll
font size
0
reset
how to read this tab
guitar tuner
×
Best way to learn
"Amor Adolescente"
Autoscroll
slow
fast
+/-
esc
set tempo
stop
Hola a todos
aki va el intro y los acordes de esta cancion de Red
espero que les sirva

e. -----4-------4-----4--------4-----------------------------|
B. ---5---5-------7-5---5--------7-5-4-------4-5-4---5-7-----|
G. -4----------------------------------6---6-----------------|
D. ----------------------------------------------------------|
A. ----------------------------------------------------------|
E. ----------------------------------------------------------|


e. ---4-7-4-----7-5-4-7-4------7-5-4-----------4-----4-5-4---|
B. -5-5-9-5-----9-7-5-9-5------9-7-5-7-5---5-7-5-7---5-7-5---|
G. -4--------------------------------6-4---4-6---6-----------|
D. ----------------------------------------------------------|
A. ----------------------------------------------------------|
E. ----------------------------------------------------------|

    MI          DO#m      LA                  SI
  Sabes que de niño yo decía que algún día me casaria con vos
   MI          DO#m             LA                     SI
  Tú eres desde niña el sol, iluminas mi camino y me llenas de pasíon

   DO#m      SOL#m     DO#m     SOL#m   LA   SI
  Pero me duele no tenerte a mi lado amor...

   MI                  SI
  Tú y yo somos dos adolescentes que se aman,
  LA                       FA#m    SI
  tú y yo juramos amarnos por siempre.

  Tú y yo nos amamos...

Y ahi se repite lo mismo


Un saludo pal grupo ojala que siga bien y pa mi sobrina
que la quiero mucho
SN BK

CHAO
Suggest correction
Give kudos to tab author, rate the tab!
1 2 3 4 5
comments
print report bad tab
guest
You may want to rate the tab now too:
select rating
Wanna post a correction for this tab? Suggest correction