Oops, an error
Loading. Please wait.

Celoso Tab

131 views 1 this week
no commentswrite comment
1 2 3 4 5
2 more votes to show rating
add to favorites
launch autoscroll
font size
0
reset
how to read this tab
guitar tuner
Autoscroll
slow
fast
+/-
esc
set tempo
stop
Help us to improve Ultimate-Guitar.com Take our survey!
×
una cancion del grupo toppazpazpazpazpazpaz de reinaldo florez

e---------------------------------------------------0---------
B------------------------------------------------2------------
G---------0------------0------------2---------0--------------
D------2------------2------------3---------------------------
A---3------------2------------3------------------------------
E------------------------------------------3-----------------


e---------------------------------------------------0---------
B------------------------------------------------2------------
G---------0------------0------------2---------0--------------
D------2------------2------------3---------------------------
A---3------------2------------3------------------------------
E------------------------------------------3-----------------

                                          Es media noche ya
e---------------------------------------------------0---------
B------------------------------------------------2------------
G---------0------------0------------2---------0--------------
D------2------------2------------3---------------------------
A---3------------2------------3------------------------------
E------------------------------------------3-----------------

                 (noche ya)                  el tiempo se me va
e---------------------------------------------------0--------
B------------------------------------------------2------------
G---------0------------0------------2---------0--------------
D------2------------2------------3---------------------------
A---3------------2------------3------------------------------
E------------------------------------------3-----------------


                (se me va)
e---------------------------------------------------0---------
B------------------------------------------------2------------
G---------0------------0------------2---------0--------------
D------2------------2------------3---------------------------
A---3------------2------------3------------------------------
E------------------------------------------3-----------------

   G           C     Em  F
como se equivoco mi corazon
     G           C      F     G
si ahora yo no duermo es porque


                C
Porque estoy celoso celoso celoso
               Em
porque si tu vuelves me haras mas dichoso
                F              G
por fin comprendi que sin tu amor
            F                 G
no puedo vivir tu me haces feliz


              C
Porque estoy celoso celoso celoso
              Em
y el amor sincero no es un paraiso
            F             G
solo ahora se porque porque
             F                G
no puedo dormir estoy celoso de ti
   C    Em     F
te amo tanto que
   G        C             F      G
solo y sin ti no se que puedo hacer

C Em F G

C                  G
Porque me siento asi
C   Em
pensando solo en ti
G           C     Em  F
como se equivoco mi corazon
G           C      F     G
si ahora yo no duermo es porque
Suggest correction
Give kudos to tab author, rate the tab!
1 2 3 4 5
comments
print report bad tab
guest
You may want to rate the tab now too:
select rating
Wanna post a correction for this tab? Suggest correction