Oops, an error
Loading. Please wait.

Cradle Of Peace Tab

1 view 1 this week
no commentswrite comment
1 2 3 4 5
3 more votes to show rating
add to favorites
launch autoscroll
font size
0
reset
how to read this tab
guitar tuner
Autoscroll
slow
fast
+/-
esc
set tempo
stop
Help us to improve Ultimate-Guitar.com Take our survey!
×
Author
Difficulty
Tuning
novice
D# G# C# F# A# D#
Song: Cradle of Peace
Band: GS Megaphone
CD: Out of my Mind
Copyright: 2001 Bone Bone Music/ASCAP

Tuning: Eb,Ab,Db,Gb,Bb,Eb
        *1/2 step down

Intro:
E|--3--3--3--3--3--3--3--3--3--3--3--3--3----
B|--3--3--3--3--3--3--3--3--3--3--3--3--3----
G|--2--0--2--0--2--0--2--0--2--0--2--0--0----
D|--x--x--x--x--0--0--0--0--x--x--x--x--0----
A|--3--3--3--3--x--x--x--x--3--3--3--3--x----
E|--------------3--3--3--3--------------3----

Verse:
Play intro 1 1/2 times
then, Am
C  G  C  C  Em7  C  G  Am  C

Chorus: x2
G  D/F#  Em  C

Intro
Verse
Chorus

Bridge:
E|--3--3--3--3--3—-3---3--3--3--3--3--3--3--3--3--3--3--3--3--3--3--3--
B|--3--3--3--3--3--3---3--3--3--3--3--3--3--3--3--3--3--3--3--3--3--3--
G|--0--0--0--0--0--0---0--0--0--0--0--0--0--0--0--0--0--0--0--0--0--0--
D|--x--x--x—-0--x--x---x--x--x--0--0--x--x--x--0--x--x--x--x--x--0—-0--
A|--3--2--0--x--0--2---3--2--0--x--x--3--2--0--x--0--2--3--2--0--x--x--
E|-----------3------------------3--2-----------3-----------------3--2—-

then:
Em7  C  Em7  C

Chorus

Chorus: (change of keys)
A  E  F#m  D


Chords:
Am: x02210
C: x3x033
G: 3x0033
Em7: 022033
D/F#: 200232
Em: 022000
A: x02220
E: 022100
F#m: 244222
D: xx0232
Suggest correction
Give kudos to tab author, rate the tab!
1 2 3 4 5
comments
print report bad tab
guest
You may want to rate the tab now too:
select rating
Wanna post a correction for this tab? Suggest correction