Oops, an error
Loading. Please wait.

Out Of My Mind Tab

7 views 1 this week
no commentswrite comment
1 2 3 4 5
3 more votes to show rating
add to favorites
launch autoscroll
font size
0
reset
how to read this tab
guitar tuner
Autoscroll
slow
fast
+/-
esc
set tempo
stop
Help us to improve Ultimate-Guitar.com Take our survey!
×
Author
Difficulty
Tuning
novice
D G C F A D
Song: Out of my Mind
Band: gs Megaphone
Cd: Out of my Mind
Copyright: 2001 Bone Bone Music/ASCAP

Tuning: Drop D
(I didn’t put how many times to hit each chord)


[Intro/Verse] 

riff A: (x6)
E|------------------------|
B|------------------------|
G|------------------------|
D|--1---5-6---3----8------|
A|--1---5-6---3----8------|
D|--1---5-6---3----8------|


[Verse]
w/overdrive: (x4)


[Pre-Chorus]

E|-----------------------------|
B|-----------------------------|
G|-----------------------------|
D|-6--8--6--8--6--8---10---6---|
A|-6--8--6--8--6--8---10---6---|
D|-6--8--6--8--6--8---10---6---|


[Verse riff B]

E|------------------|
B|------------------|
G|------------------|
D|--1---8---6-------|
A|--1---8---6-------|
D|--1---8---6-------|

[Verse riff A]
[Chorus]
[Verse riff B]
[Verse riff A - pm]
[Pre-Chorus]
[Chorus]


[Bridge]

E|----------------------------------------------------------|
B|----------------------------------------------------------|
G|----------------------------------------------------------|
D|-4--3--4--3--4—-3/4--1---4--3--4--3--4—-3/4--1----6--4----|
A|-4--3--4--3--4—-3/4--1---4--3--4--3--4—-3/4--1----6--4----|
D|-4--3--4--3--4—-3/4--1---4--3--4--3--4—-3/4--1----6—-4----|


[Chorus]
[Verse riff B]



************************************

| /  Slide up

************************************
Suggest correction
Give kudos to tab author, rate the tab!
1 2 3 4 5
comments
print report bad tab
guest
You may want to rate the tab now too:
select rating
Wanna post a correction for this tab? Suggest correction