Oops, an error
Loading. Please wait.

Use Me Tab

7 views 1 this week
no commentswrite comment
1 2 3 4 5
3 more votes to show rating
add to favorites
launch autoscroll
font size
0
reset
how to read this tab
guitar tuner
Autoscroll
slow
fast
+/-
esc
set tempo
stop
Help us to improve Ultimate-Guitar.com Take our survey!
×
Author
Difficulty
Tuning
novice
C# G# C# F# A# D#
Song: Use Me
Band: GS Megaphone
CD: Out of my Mind
Copyright: 2001 Bone Bone Music/ASCAP

Tuning: Db,Ab,Db,Gb,Bb,Eb
        *or 1/2 step down, then drop D
(I didn’t put how many times to play each chord)

Sorry if I put the sections a little out of order. It’s not that hard
though so you can figure it out.

Intro/Verse:    <> means harmonics
Eb|-------------------
Bb|------------<7>----
Gb|------------<7>----
Db|---4--------<7>----
Ab|---4---------------
Db|---4---------------

Chorus:
Eb|----------------
Bb|----------------
Gb|--7---6---5-----
Db|--7---6---5-----
Ab|--5---4---3-----
Db|----------------

Verse
Chorus

Riff A:
Eb|-------------------------
Bb|-------------------------
Gb|--4----------------------
Db|--4---3---0----1--2--3---
Ab|--2---3---0----1--2--3---
Db|------3---0----1--2--3---

Verse
Chorus
Riff A

Bridge:
Eb|--------------
Bb|--------------
Gb|--4-----------
Db|--4---0-------
Ab|--2---0-------
Db|------0-------

Riff A
Suggest correction
Give kudos to tab author, rate the tab!
1 2 3 4 5
comments
print report bad tab
guest
You may want to rate the tab now too:
select rating
Wanna post a correction for this tab? Suggest correction