Oops, an error
Loading. Please wait.

El Nono Tab

60 views 3 this week
no commentswrite comment
1 2 3 4 5
3 more votes to show rating
add to favorites
launch autoscroll
font size
0
reset
how to read this tab
guitar tuner
×
Best way to learn
"El Nono"
Autoscroll
slow
fast
+/-
esc
set tempo
stop
Saque esta cancion gracias a un amigo de la banda que tengo =D!!
asi que agradecimiento a Yairo por ayudarme con los acordes


Intro

E|----------------------------------------------|
B|-----------7/9/7------------------------------|
G|-----6-9---------9----------6-6--------6-9-6--|
D|--7-----------------7-9-7-9------9-7-9--------|
A|----------------------------------------------|
E|----------------------------------------------|

E|----------------------------------------------|
B|--------7/9-7---------------------------------|
G|-----6---------9--6--4------------6-9-6-------|
D|--7-------------------------9-7-9-------------|
A|----------------------------------------------|
E|----------------------------------------------|


LA - FA#m - DO#m - SIm
LA - FA#m - DO#m - SI5-LA5-SI5-DO#5-MI5-DO#5

    LA                        FA#m                        DO#m
    Apareciste un dia tras la sierra cuando menos lo esperaba
    SIm               LA
    yo no podia entender
                         FA#m                         DO#m
    lo que sucede cuando las personas hablan desde el alma
    SIm              LA
    se nos eriza la piel
            FA#m      DO#m
    todo el tiempo se va
SIm
    en mil recuerdos
        LA        FA#m     DO#m
    que nadie nos podra borrar


SIm                      DO#m
    tengo presente tu forma de actuar
SIm                      DO#m
    la magia eterna de verte jugar
       SIm      RE        FA#m
    en el meson de la verdad


             MI        SIm
    y aunque no estes aqui
                   FA#m
    el nono se nos va
MI                   SIm
    nos queda su alegria

    pasion compartida
                      FA#m
    y volvere a encontrar
MI                    SIm
    es el rock tu alegria

    nuestra compañia
         RE
    nono te vas


E|----------------------------------------------|
B|-----------7/9/7------------------------------|
G|-----6-9---------9----------6-6--------6-9-6--|
D|--7-----------------7-9-7-9------9-7-9--------|
A|----------------------------------------------|
E|----------------------------------------------|

E|----------------------------------------------|
B|--------7/9-7---------------------------------|
G|-----6---------9--6--4------------6-9-6-------|
D|--7-------------------------9-7-9-------------|
A|----------------------------------------------|
E|----------------------------------------------|


LA - FA#m - DO#m - SIm
LA - FA#m - DO#m - SI5-LA5-SI5-DO#5-MI5-DO#5


      LA              LA    FA#m                    DO#m
    A todo corazon rockanrolero con la mente bien abierta
    SIm                LA
    se dedica esta cancion
                             FA#m                    DO#m
    a los que tienen que partir a los ligeros de equipaje
    SIm
    a los que buscan
    LA       FA#m      DO#m
    formas para continuar
SIm
    desde el encierro
         LA          FA#m      DO#m
    el dolor ya nos viene a buscar


SIm                      DO#m
    tengo presente tu forma de actuar
SIm                       DO#m
    la magia eterna de verte jugar
SIm                       DO#m
    la verdadera forma de encarar
        SIm           RE   FA#m
    rompiendo las redes te vas


              MI        SIm
    y aunque no estes aqui
                   FA#m
    el nono se nos va
MI                   SIm
    nos queda su alegria

    pasion compartida
                      FA#m
    y volvere a encontrar
MI                    SIm
    es el rock tu alegria

    nuestra compañia
                    FA#m
    cruzaste sin pensar
MI                 SIm
    fiel a tu rebeldia

    a tu sabiduria

                   FA#m
    el nono se nos va nos va
              MI
    si se nos va nos va
              SIm
    si se nos va nos va
                     FA#m
    de afuera se nos va nos va
        MI            SIm
    nos va nos va nos va

FA#m - MI - SIm [x3]
FA#m - MI


E|---------------------------------|
B|---------------------------------|
G|---------------------------------|
D|----------------------4-4-4-6-7--|
A|------------4-4-4-5-7------------|
E|--4-4-4-5-7----------------------|
Suggest correction
Give kudos to tab author, rate the tab!
1 2 3 4 5
comments
print report bad tab
guest
You may want to rate the tab now too:
select rating
Wanna post a correction for this tab? Suggest correction