Oops, an error
Loading. Please wait.

La Gaita Tiene Montuno Bass Tab

105 views 1 this week
no commentswrite comment
1 2 3 4 5
3 more votes to show rating
add to favorites
launch autoscroll
font size
0
reset
guitar tuner
×
Best way to learn
"La Gaita Tiene Montuno"
Autoscroll
slow
fast
+/-
esc
set tempo
stop
Hola amigos!!! Estoy de Vuelta!!! Feliz año!!! Ahora les presento
al grupo Guaco en sus orígines, fusionando con otros ritmos
la gaita zuliana con este tema que muy poca gente recuerda, pero es una
idea de lo que está escuchando ahora de este grupo:

Intro (2X):

G ----------------------|
D ---------12-12--------|
A -10--13--------13-10--|
E ----------------------|

G ---------------------|
D ---7-10-10----7------|
A -8----------8----10--|
E ---------------------|

Estrofa ("Hace tiempo que no canto una parranda...")

G -------------------------------------|
D --------12------------10-------------|
A -10-10-----10--9--8-8----8-9--10-10--| (2X)
E -------------------------------------|

G ---------------------------------|
D ---------------------------------|
A -10-10----9--8-8---8-9--10-10----| (2X)
E -------10--------8---------------|

Estribillo (2X) ("No me digan na', que ya lo sabe todo el mundo.
No me digan na', como los Guaco no hay ninguno. Ninguno"):

G ----------------------------------|
D -10----10-10-10----10-------------|
A ----10----------10-----8---8-8-8--|
E -------------------------8--------|

G --------------------------|
D ---10--8---8-8-8---7-8----|
A ---------8-------8-----8--|
E -8------------------------|

G -------------------------|
D -8-8-8---8--7-7-7-7-7-7--|
A -------8-----------------|
E -------------------------|

G --------------------------12---|
D -12-12-12-12----12-----12------|
A -------------12-----10---------|
E -------------------------------|

G -12----12-------12-12----12-----|
D ----12-------12-------12--------|
A ----------10----------------10--|
E --------------------------------|

Intro (2X)

Estrofa ("El montuno que tiene esta gaita mira, lleva el ritmo
alegre de parranda..."):

Estribillo (2 veces)

Montuno (despues de la entrada del piano):

G --------------------------------|
D --------------12----------------|
A -10--------12----12--10----10---|
E ----11--10--------------10------|

G ---------------------------|
D -10-12---------------------|
A -------12----12--10----10--|
E ----------10--------10-----|

G ------------------------------|
D -13-10-12----12--10-----------|
A ----------12--------10----10--|
E -----------------------10-----|

Se puede improvisar con estos riffs. Es muy sabrosa pero cuesta
un poco agarrarle el ritmo a esta pieza. De verdad esta es una obra
de Guaco, aunque usted no lo crea!!!. Espero que les guste. Saludos
a todos desde Venezuela. ¡¡¡HASTA LA PRÓXIMA!!!
Suggest correction
Give kudos to tab author, rate the tab!
1 2 3 4 5
comments
print report bad tab
guest
You may want to rate the tab now too:
select rating
Wanna post a correction for this tab? Suggest correction