Oops, an error
Loading. Please wait.

1537 Chords

13 views 3 this week
no commentswrite comment
1 2 3 4 5
3 more votes to show rating
add to favorites
launch autoscroll
font size
0
reset
transpose
0
reset
simplify chords
display chords
guitar tuner
Autoscroll
slow
fast
+/-
esc
set tempo
stop
Help us to improve Ultimate-Guitar.com Take our survey!
×
Author
Difficulty
intermediate
About this tab version
Es una de las mejores canciones de Guadarraya. Was this info helpful? Yes No
Aquí les dejo una de las mejores canciones de Guardarraya,
1537 es un valse muy hermoso que le va a gustar a todos.
Cualquier cosa avisen.
Acordes: Em Am B7. 
El significado de los símbolos
en las tablaturas están al final.


[Intro]

e|-7----------------------7/12-12----------------|
B|-8-8-7/8-8--7/8-8-7/8-8-8/13-13-13-13-12/13-13-|
G|---9-8/9-9--8/9-9-8/9-9---------14-14-13/14-14-|
D|-----------------------------------------------|
A|-----------------------------------------------|
E|-----------------------------------------------|


e|-11-------------11-----------------|
B|-10-10-10----10-10-10h12-10--8-7-8-|
G|----11-11-11-------11----11--9-8-9-|
D|-----------------------------------|
A|-----------------------------------|
E|-----------------------------------|

e|-7--------------------------7/8--8---8--8--10-12-|
B|-8-8-7/8-8-7/8-8-7/8-8--8-8-8/10-10--10-10-12-13-|
G|---9-8/9-9-8/9-9-8/9-9--9-9----------------------|
D|-------------------------------------------------|
A|-------------------------------------------------|
E|-------------------------------------------------|

e|-14-14-11-11-------14-15-14h15--(12)------------(12)-|
B|-10-------------10------------------(12)----(12)-----|
G|-11----------11-------------------------(12)---------|
D|-----------------------------------------------------|
A|-----------------------------------------------------|
E|-----------------------------------------------------|


[Verse 1]

Em
Mil quinientas treinta siete veces
      Am
te he pedido que nunca me dejes
             Em
cuando la mentira veas que me envuelve
             B7
con su manto cotidiano, diurno
             Em
y yo no pueda vomitar,
       Am     B7                  Em
tantas cosas, que me pretenden mentir,
       Am     B7                  B7
burdas cosas, vayan busquénse otro gil.


[Chorus]

Em                     Am
Por eso yo me vo' a tocar,
Em                     B7
por eso yo me vo' a jugar,
Em                     Am
por eso yo me vo' a escapar
                 B7
con un trío de locos.


[Refrain]

Em       Am               B7
Y estas mágicas, electroacústicas
         Em
ganas de joder.

Em       Am               B7
Y estas mágicas, electroacústicas
         Em
ganas de joder.

e|-7-7-7----------------------------7/12-------------|
B|-8-8-8-8-7-8-7/8-8-7/8-8-7/8-8--8-8/13-13-14-12-13-|
G|-------9-8-9-8/9-9-8/9-9-8/9-9--9------14-14-13-14-|
D|---------------------------------------------------|
A|---------------------------------------------------|
E|---------------------------------------------------|

e|-11-------11----11-----11--------------|
B|-10-10-10-10-10-10--10-10-10/8-8-7/8-8-|
G|----11-11----11-----11----11/9-9-8/9-9-|
D|---------------------------------------|
A|---------------------------------------|
E|---------------------------------------|

e|-7-7-7------------------------------7/8--8---8--8--10-12-|
B|-8-8-8-8-7-8-7/8-8-7/8-8-7/8-8--8-8-8/10-10--10-10-12-13-|
G|-------9-8-9-8/9-9-8/9-9-8/9-9--9-9----------------------|
D|---------------------------------------------------------|
A|---------------------------------------------------------|
E|---------------------------------------------------------|

e|-14-11-11-14-11-14-11--17-17/12-12----12-|
B|-10----10----10----10--17-17/12-12-12-12-|
G|-11----11----11----11--------------12----|
D|-----------------------------------------|
A|-----------------------------------------|
E|-----------------------------------------|


[Verse 2]

Em                           Am
Mil quinientas treinta siete veces
           B7                  Em
yo te he pedido que nunca me dejes
                               Am
cuando la mentira veas que me envuelve
B7           Em                  Am
con su manto blanco, diurno y cotidiano
                   B7
y yo no pueda vomitar,
              B7               B7
no pueda vomitar, no pueda vomitar.


[Refrain]

Em       Am              Em
Y estas mágicas, electroacústicas
         Em
ganas de joder.

Em      Am              Em
Y esas mágicas, electroacústicas
         Em
ganas de joder.

Em      Am              B7
Y esas mágicas, electroacústicas
         Em
ganas de joder.

Em      Am              B7
Y esas mágicas, electroacústicas
         Em     Em
ganas de joder.

           Am  B7
Ganas de joder,
           Em  Am B7
ganas de joder.

Em
Mágicas.


************************************

| /  slide. Deslizar el dedo sin levantarlo de la cuerda.
| h  hammer on. Martillar el otro traste con otro dedo sin levantar el primero.
| () armónicos naturales. Acentar apenas los dedos, sin llegar a tocar como se
     lo hace normalmente.

************************************
Suggest correction
Give kudos to tab author, rate the tab!
1 2 3 4 5
comments
print report bad tab
guest
You may want to rate the tab now too:
select rating
Wanna post a correction for this tab? Suggest correction