Oops, an error
Loading. Please wait.

Crossing The Deadline Tab

version 1
version 1

Whole song

Interactive

528 views 1 this week
no commentswrite comment
1 2 3 4 5
3 more votes to show rating
add to favorites
launch autoscroll
font size
0
reset
how to read this tab
guitar tuner
×
Best way to learn
"Crossing The Deadline"
Autoscroll
slow
fast
+/-
esc
set tempo
stop
Author
Band - Guano Apes		
Song - Crossing the Deadline
Album - Proud like a God

tuning:  standard

Key:
(t) - tap
h - hammer on
p - pull off
<#> - harmonic
/ \ - slide
x - muffle

Verse/intro: (clean)

e|-------------------------------------------|
B|---------------<12>------------------------|
G|----------------------------------<12>-----|
D|---------<12>---------------<12>-----------|
A|-------------------------------------------|
E|--<12>--------------<12>-------------------|

Prechorus:

e|------------------------------------|
B|------------------------------------|
G|--4--4--x----2--3--x----4--4--3--4--|
D|--4--4--x----2--3--x----4--4--3--4--|
A|--2--2--x----0--1--x----2--2--1--2--|
E|--2--2--x----0--1--x----2--2--1--2--|

Chorus:
	    (guitar 1)
e|--------------------------------|
B|--------------------------------|
G|--4--4--4--4-----2--2--2--2-----|
D|--4--4--4--4-----2--2--2--2-----|
A|--2--2--2--2-----0--0--0--0-----|
E|--2--2--2--2-----0--0--0--0-----|

            (guitar 2)
e|--------------------------------|
B|--7--7--7--7\6--5--5--5--5/6----|
G|--------------------------------|
D|--4--4--4--4\3--2--2--2--2/3----|
A|--------------------------------|
E|--------------------------------|

Bridge:
e|---------------------------|
B|---------------------------|
G|---------------------------|
D|--4--4--4--4--4--4--4--4---|
A|--2--0--2--0--2--0--2--0---|
E|--2-----2-------2------2---|

Last chorus overdub:
		   (guitar 2)
e|--------------------------------------------|
B|--------------------------------------------|
G|-(t)16p7h9--(t)16p7h9--(t)16p7h9--(t)16\14--|
D|--------------------------------------------|
A|--------------------------------------------|
E|--------------------------------------------|


lyrics:

The sand, the sand it covers the land
it's just a victim
you didn't stop it
high noon and the walk brings the storm with it
born to it or lay on it

Day on day, night on night
with the thrill of a kid on my side
I will survive
As long as this trip will go
with my soul

I search for water
you need the cold
bring me some bubbles and a crown of gold
crossing the deadline befor it's too late
the finger snaps to the center of anger, wait

Cross the line you will suffer
(no bridge, just one step)
Cross the line...
(no bridge, no way back)
Cross the line...
(better give, better stand up)
Cross the line...
(better give up, better shut up)

So where's the mountain
I can't reach the top of this world
Suggest correction
Give kudos to tab author, rate the tab!
1 2 3 4 5
comments
print report bad tab
guest
You may want to rate the tab now too:
select rating
Wanna post a correction for this tab? Suggest correction