Oops, an error
Loading. Please wait.

Open Your Eyes Bass

version 3
version 3

Whole song

Interactive

12,947 views 21 this week
3 commentsread comments
1 2 3 4 5
1 last vote to show rating
add to favorites
launch autoscroll
font size
0
reset
guitar tuner
×
Best way to learn
"Open Your Eyes"
Autoscroll
slow
fast
+/-
esc
set tempo
stop
Author
Difficulty
intermediate
[Intro]
G|------------------------|
D|*----------------------*|  (play 4x)
A|*-7\---2-2-/3-3-5-5-h7-*|
E|-----0------------------|

[Verse/Interlude]
G|--------------------------|
D|*-------2h3--------------*| (play 3 times)
A|*------------------------*|
E|-0--x-x-----0-0--x-x-1----|

G|--------------------0-------0--|
D|--------2h3--------------------|
A|------------x-x-2/3-----3/4----| 
E|-0--x-x------------------------|   

(last time) 
G|----------------|------|
D|----------------|------|
A|----------3-----|------|
E|-0(stop)-----2--|-0--0-|

[Verse/Interlude]
G|--------------------------|
D|*-------2h3--------------*| (play 3 times)
A|*------------------------*|
E|-0--x-x-----0-0--x-x-1----|

G|--------------------0-------0--|
D|--------2h3--------------------|
A|------------x-x-2/3-----3/4----| 
E|-0--x-x------------------------|   

[Bridge]
G|--------------------------|----|
D|---*----------------------|----|
A|-/----\-------------3-----|----|
E|-0-0---0-0---0-0-------2--|-0--|

[Outro]
G|-----------------|
D|-----------------|
A|-----------------|
E|-0-0---0-0---0-0-|



************************************

| *  Natural harmonic
| h  Hammer-on
| /  Slide up
| \  Slide down
| x  Dead note

************************************
Suggest correction
Give kudos to tab author, rate the tab!
1 2 3 4 5
comments
print report bad tab
3 comments total.
0 reply
Meti85 30 Jan 23, 2007 11:17 AM

you're pretty close... there aren't any ghost notes in the verse and the second part of the verse is simply a slapped E hammered to a G with an popped octave followed by a slapped E hammered to an A with again a popped octave... if you know what i mean

0 reply
E-male 642 Jan 23, 2007 01:46 PM

I'm sorry, but I disagree with all your corrections. Good work apart from that :)

1: For the muted slaps listen to the breaks before the verses, for instance listen to the part at 0:30. I can clearly hear the click of the slapped ghost note. You hear the sound of strings clicking against the frets really clearly there.

2: In that same part you can also clearly hear that those two notes that follow in that riff are a C and then a C#, slided in from one fret below, if you know what i mean. Those slides could also be hammer-ons btw, but I like the sliding better.

Your corrections do sound resonable though, but it's not what is played on the track IMO.

0 reply
TheGermanBassis 10 Jul 04, 2012 10:22 AM

Sooooooooooooo the intro/chorus sounds good to me, but the slap/pop part is eh you know, but maybe its just hard for beginners like me (playing bass 6 month)... or could someone do a "how to play" video for me and other ones? :P

guest
You may want to rate the tab now too:
select rating
Wanna post a correction for this tab? Suggest correction