Oops, an error
Loading. Please wait.

Quietly tab

version 1
version 1

Whole song

Interactive

11,909 views 6 this week
2 commentsread comments
1 2 3 4 5
x 11
add to favorites
×
Save as Personal and add changes to this tab that will be seen only by you. Learn more ›
×
You can save this tab as Personal to edit and correct it or add notes. All changes will be seen only by you. Learn more »
launch autoscroll
font size
0
reset
how to read this tab
guitar tuner
edit
Autoscroll
slow
fast
+/-
esc
set tempo
stop
Artist: Guano Apes
Song: Quietly
Album: Walking on a thin line
Tab: Adrian Kmicic (skater_2000ca@hotmail.com)

*Guitar Tab*
Tuning: Standard

*Order*
Guitar 1 | Guitar 2
---------|----------
Intro x9 |
Intro x4 |Verse  x2
Chorusx2 |Chorus x2
Intro x4 |Chords x2
Intro x4 |Verse  x2
Chorusx4 |Chorus x4
Rest
Interlude
Chorusx4 |Chorus x4 
Outro x1 |


*Legend*
~    Let ring
PM   palm mute


Intro/Verse  (w/distortion)
E|-----0-0-------0-0-------0-0-------0-0---|
B|--5--4-4----5--4-4----5--4-4----5--4-4---|
G|---------------------------------------o-|      
D|---------------------------------------o-|
A|-----------------------------------------|
E|-----------------------------------------|

Verse
E|---------------------------------------------------------------------|
B|---------------------------------------------------------------------|
G|---------------------------------------------------------------------|     
D|-9-9-9-9-9-9-9-9-1111111111111111--6-6-6-6-6-6-6-6--6-6-6-6-6-6-6-6--|
A|-7-7-7-7-7-7-7-7--9-9-9-9-9-9-9-9--4-4-4-4-4-4-4-4--4-4-4-4-4-4-4-4--|
E|---------------------------------------------------------------------|
PM ..................................................................

Chorus  (w/distortion)
E|---------------------------------------------------------------------|
B|---------------------------------------------------------------------|
G|-6-6-6-6-6-6-6-6--9-9-9-9-9-9-9-9--4-4-4-4-4-4-4-4--6-6-6-6-6-6-6-6--|   
D|-6-6-6-6-6-6-6-6--9-9-9-9-9-9-9-9--4-4-4-4-4-4-4-4--6-6-6-6-6-6-6-6--|
A|-4-4-4-4-4-4-4-4--7-7-7-7-7-7-7-7--2-2-2-2-2-2-2-2--4-4-4-4-4-4-4-4--|
E|-4-4-4-4-4-4-4-4-----------------------------------------------------|

Chords  (play with the bass)
E|----------------------------------|
B|----------------------------------|
G|---9~----11~-----6~---------------|
D|---9~----11~-----6~---------------|
A|---7~-----9~-----4~---------------|
E|----------------------------------|

Interlude  (fade in...)
E------------4--------------------4----------|
B---5--4--5-----5--4--5--5--4--5-----5--4--5-|
G--------------------------------------------|
D--------------------------------------------|
A--------------------------------------------|
E--------------------------------------------|

Outro
E|-------------|
B|-------------|
G|---6~--------|
D|---6~--------|
A|---4~--------|
E|---4~--------|


great song, easy to play... very catchy. enjoi.. 

Adrian..

Please rate it!
Suggest correction
Creating personal tab
Creating personal tab
You can edit any tab online and save it as your Personal.

You can edit, replace or remove any tab part or add personal notes – all changes will be seen only by you.

Personal tabs can be accessed anytime from any device, even offline.
Learn more »
comments
print report bad tab
2 comments total.
0 reply
T-Smash 10 May 23, 2014 04:50 AM

The Chorus should be. The rest is quiet fine.

Chorus (w/distortion)
E|---------------------------------------------------------------------|
B|---------------------------------------------------------------------|
G|-6-6-6-6-6-6-6-6-----------------------------------------------------|
D|-6-6-6-6-6-6-6-6--7-7-7-7-7-7-7-7--2-2-2-2-2-2-2-2--4-4-4-4-4-4-4-4--|
A|-4-4-4-4-4-4-4-4--7-7-7-7-7-7-7-7--2-2-2-2-2-2-2-2--4-4-4-4-4-4-4-4--|
E|-4-4-4-4-4-4-4-4--5-5-5-5-5-5-5-5--0-0-0-0-0-0-0-0--2-2-2-2-2-2-2-2--|

0 reply
St-Eek 10 Dec 25, 2015 01:14 AM

Chords for the Interlude are: G#, A, D#, E

guest
Wanna post a correction for this tab? Suggest correction