Oops, an error
Loading. Please wait.

Scratch The Pitch Tab

version 1
version 1

Whole song

Interactive

2,808 views 3 this week
no commentswrite comment
1 2 3 4 5
please rate
add to favorites
launch autoscroll
font size
0
reset
how to read this tab
guitar tuner
Tab Pro tools
  • play this tab
  • loop segment
  • change instrument
  • show fretboard
  • metronome
×
Best way to learn
"Scratch The Pitch"
Autoscroll
slow
fast
+/-
esc
set tempo
stop
Difficulty
intermediate
Scratch The Pitch - Guano Apes

Listen to the song to hear the rythm. 


Intro:
e-------------|--------------|-------------|---------|
b-------------|--------------|-------------|---------|
g-------------|--------------|4------------|---------|
D--8-8---8-8--|8-8---8-8---6-|4----------3-|6--------|
A--6-6---6-6--|6-6---6-6---4-|2----------1-|6--------|
E--6-6---6-6--|6-6---6-6---4-|-----------1-|4--------|


The lines fade away
They dissappear
The colour of your lips
Wants to move on

So now... The one you are looking for. Is the one without a...
	e--- }
	b--- }}
	g--4 }}}}}} Play palm muted in line with the music. 
	D--4 }}
	A--2 }
	E--- }

Soul,no soul, no soul, no soul



I need no reasons
To feel the wave inside
So hold on... The only thing you have to know. Is I see your make up...
	e--- }
	b--- }}
	g--4 }}}}}} Play palm muted in line with the music.
	D--4 }}
	A--2 }
	E--- }


During Chorus: Listen to the cd for timing. Palm muted between what I've written.
The second chorus, play in time with the double bassdrum.
e-------------|--------------|-------------|----------|
b-------------|--------------|-------------|----------|
g-------------|--------------|4------------|----------|
D--8-8---8-8--|8-8---8-8---6-|4----------3-|6-------4-|
A--6-6---6-6--|6-6---6-6---4-|2----------1-|6-------4-|
E--6-6---6-6--|6-6---6-6---4-|-----------1-|4-------2-|

Scratch the pitch
And fool me around
The times gone
And no oh
Dont forget
Where you are coming from
Hide your make up
2x


The rest is the same as the above:


If pain and mania
Show us what we are
I draw your skin
And push you way to far
Cause tonight
I’m the one you’re looking for
One more time feeding your soul
No soul, no soul, no soul

Between the devil
And the deep blue sea
We fly
Cause there in the
Sand on the shore
Lies our fear

Scratch the pitch
And fool me around
The times gone
And no oh
Dont forget
Where you are coming from
Hide your make up
2x

		
Scratch the pitch			}
Fool me around				}These lyrics wind through each other
When you are laughing....		}

The second time the guitar follows the bass line.
e------------------------|	|---------------|
b------------------------|	|---------------|
g------------------------|	|---------------|
D-------------3-3-3-4-4-4|  4x	|--6-6-5-3-3-2-8|
A---4-4-6-6-6------------|	|--6-6-5-3-3-2-6|
E------------------------|	|--4-4-3-1-1-0-6|


Outro:
e-------------|--------------|-------------|----------|
b-------------|--------------|-------------|----------|
g-------------|--------------|4------------|----------|
D--8----------|8-------------|4------------|6---------|
A--6----------|6-------------|2------------|6---------|
E--6----------|6-------------|-------------|4---------|

If pain and mania			}These
Show what you are			}
I’ll draw your skin			}lyrics
And push us too far			}wind
Push us too far				}through

There in the sand			}each 
Of the shores lying your fear		}other

End:
e-------------|------|
b-------------|------|
g-------------|------|
D--8-8---8-8--|8-----|
A--6-6---6-6--|6-----|
E--6-6---6-6--|6-----|


Have fun!!!
Greetz Nancy
comments
We did not receive enough feedback on this tab! Please rate:
print report bad tab
1 2 3 4 5
I want to post or [tab]
guest
You may want to rate the tab now too:
select rating
Please do not post tabs as comments. Select "correction" instead!