Oops, an error
Loading. Please wait.

Ay Mujer Chords

version 1
version 1

Whole song

26 views 1 this week
no commentswrite comment
1 2 3 4 5
3 more votes to show rating
add to favorites
launch autoscroll
font size
0
reset
transpose
0
reset
display chords
guitar tuner
Autoscroll
slow
fast
+/-
esc
set tempo
stop
Help us to improve Ultimate-Guitar.com Take our survey!
×
Intro: E, F#m, G#m, A, G#m, F#m, E, Fig:1   

E||----------------------|----------------------|----------------------|
B||----------------------|----------------------|----------------------|
G||-----------------1----|-----------------2----|-----------------4----|
D||------------2---------|------------4---------|------------6---------|
A||-------2--------------|-------4--------------|-------6--------------|
E||--0-------------------|--2-------------------|--4-------------------|


-----------------5----|----------------------|----------------------|
----------------------|----------------------|----------------------|
----------------------|-----------------4----|-----------------2----|
------------7---------|------------6---------|------------4---------|
-------7--------------|-------6--------------|-------4--------------|
--5-------------------|--4-------------------|--2-------------------|

 Fig:1
|-----------------------|------------||
|-----------------------|------------||
|*-----------------2----|--1h-0h-1--*||
|*------------2---------|-----------*||
|--------2--------------|------------||
|---0-------------------|------------||


                    4x
|--------------------------|
|----------------0---------|
|*------------------------*|
|*----------2---------1---*|
|------2-------------------|
|---0----------------------|
                                  3x              Em/5 
E||-----------------------|--------|            |----------------------|-------2----||
B||------------------2----|--------|            |----------------------|--4---------||
G||*----------------------|-------*|            |-----------------0----|------------||
D||*------------4---------|--2----*|            |------------4---------|------------||
A||--------4--------------|--------|            |-------2--------------|------------||
E||---2-------------------|--------|            |--2-------------------|------------||


E                           F#m
Ay mujer ya no estés triste mira el cielo que esta limpio
                                 Em/5        Fig:1
Como el blanco de la manta de tu ropa

Tu pancita ya revienta como flor amanezquera
Como en la montaña el ojo de agua

Coro:
E       F#m      G#m           A
Todavía recuerdo aquella noche Besando tu boca,
G#m       F#m  Em/5 
Temblando de   amor

Luego los dos quedamos como uno y
Creció tu vientre junto a mi esperanza

Nació el niño  y tu cara morena es colorada
De alegría cuando ves que lora vivo
Duerme niño duerme amor
Duerme antes que me duerma yo

A, A, LA, LA, LA, LA,?

Coro:
Ya mujer yo pienso
Que en cada niño vive toda la humanidad
Pero estoy feliz por que este niño
nació en una pueblo en libertad aaa?.


Y vale que todo se repite la canción es súper fácil
Suggest correction
Give kudos to tab author, rate the tab!
1 2 3 4 5
comments
print report bad tab
guest
You may want to rate the tab now too:
select rating
Wanna post a correction for this tab? Suggest correction