Oops, an error
Loading. Please wait.

Te Veo En El Cielo Tab

version 1
version 1

Whole song

85 views 1 this week
no commentswrite comment
1 2 3 4 5
3 more votes to show rating
add to favorites
launch autoscroll
font size
0
reset
how to read this tab
guitar tuner
Autoscroll
slow
fast
+/-
esc
set tempo
stop
Intro: B C#m G#m F# X2 E F# G#m F#

E     ----------------------------4--6--7------------------------
B     ------------2s4--2~-----2~-----------4s2-----2s4-----------
G     ---------4-----------4--------------------4----------------
D     ----2s4----------------------------------------------------
A     -----------------------------------------------------------
E     -----------------------------------------------------------

E     -----------------------------------------------------------
B     ----2~-----------------------------------------------------
G     --------4--4--3--------------------------------------------
D     -----------------4-----------------------------------------
A     --------------------4-4s6--4~------------------------------
E     -----------------------------------------------------------

E     ----------------------------4--4--2-4s9--7--9s11--7--9-----
B     ------------2s4--2~-----2~---------------------------------
G     ---------4-----------4-------------------------------------
D     ----2s4----------------------------------------------------
A     -----------------------------------------------------------
E     -----------------------------------------------------------

E     ----7s9s7--------------------------------------------------
B     -----------7s9s7~--2s4s2-2p0-------------------------------
G     ------------------------------0h1--1--1-1s3--3--3s4--4~----
D     -----------------------------------------------------------
A     -----------------------------------------------------------
E     -----------------------------------------------------------

E     -----------------------------------------------------------
B     --------------2h4-5p4p2-----------2--4---------------------
G     ---------2h4-------------4p0---------------2s4s2~--s0------
D     ----2h4-----------------------4~---------------------------
A     -----------------------------------------------------------
E     -----------------------------------------------------------


I.-
B              C#m
Es muy dificil esperar
      G#m            F#
y un adios asi dar a tiempo
B                  C#m
siempre el sol se ocultara
G#m            F#
concluyendo lo nuestro
  E         F#    G#m
Hubiera deseado estar
     C#m        G#m    F#
y un dia mas contigo pasar
E            F#     G#m
aunque ya no estes aqui
             F#
Te veo en el cielo, te veo en el cielo

Coro.-
B                        E
Aun mas que perderte me duele mas
     G#m          F#
los años que no estuve a tu lado
B                   E
quiero correr hacia ti,
   G#m            F#
te quiero enseñar lo que he logrado
     C#m        G#m
pues lo que mas duele
      E          F#  B          E F#
es ya no poder vivir junto a ti

I.-
Veo el retrato de un pequeño que
solo esta
queriendote hallar
es increible como crecio
aun asi
solo el continuó
hubiera deseado estar
en tus brazos otra vez
aunque ya no estes aqui
alla te abrazo, te abrazo en el cielo

Coro

II.-
A                     C#m
Pues muchos años yo deje pasar
   C                  B
crei que en control estan
A                 G#m
ahora que veo que no es asi
   G
se ha terminado
              F#
te devo dejar ir

     E         F#   G#m
Solo un minuto nada más
  C#m      G#m    F#
hubiera querido decir
   E          F#   G#m
Te amo mas te lo diré
           F#
allá en el cielo, allá en el cielo.
Coro

Te veo en el cielo


jr_pelao@ GBY modificado por eivanf
Suggest correction
Give kudos to tab author, rate the tab!
1 2 3 4 5
comments
print report bad tab
guest
Wanna post a correction for this tab? Suggest correction