Oops, an error
Loading. Please wait.

Te Veo En El Cielo Tab

version 2
version 2

Whole song

67 views 1 this week
no commentswrite comment
1 2 3 4 5
3 more votes to show rating
add to favorites
launch autoscroll
font size
0
reset
how to read this tab
guitar tuner
Autoscroll
slow
fast
+/-
esc
set tempo
stop
Help us to improve Ultimate-Guitar.com Take our survey!
×
TE VEO EN EL CIELO


Intr.: (la pueden tocar con las notas o hacer el puteo)


  I--------------Si-----------------I--------------C#m-----I-G#m-I-------F#------I
e:---------------------------------------------------------------------------------------
B:-------------------------------7h9---7-9----------------------------------------------
G:---------4-6s8-6-4-6h8-------------------6h8-6-4-6h8-6-4---3h4-------------------
D:--4h6-------------------------------------------------------------4-2-1----------
A:-----------------------------------------------------------------------------3x------
E:--------------------------------------------------------------------------------------

 I--------------Si-------I--C#m----I-----------G#m--------I--------------F#------------I

e:------------------------------------7h9s11-11-9-7h9-------7b9b7--------------------
B:-------------------------7h9-7h9---------------------7h9--------7b9b7--------------
G:--------4-6h8-6-4-6h8--------------------------------------------------6b8b6x-b3---
D:--4h6--------------------------------------------------------------------------------
A:-------------------------------------------------------------------------------------
E:-------------------------------------------------------------------------------------

 I--MI---I--F#----I-G#m-I-C#m-I                  I-G#m-I-F#m-I
e:-------------------------------------------------------------------------
B:----------------------------4-6------------4-6s8----8-6-------------------
G:--------------------7----------4-6-----4-6-------------------6b8b6x---s2-
D:--3-3-3---5-5-5---7----------------4-6-----------------------------------
A:-------------------------------------------------------------------------
E:-------------------------------------------------------------------------


MI
Es muy difícil esperar
      F#
Y un adiós así dar a tiempo
G#m                C#m
Siempre el sol se ocultara
 G#m             F#
Concluyendo lo nuestro

MI          F#     G#m
Hubiera deseado estar
               F#
Y un día más contigo  pasar
 SI                C#m
Aunque ya no estés aquí
  G#m            F#
Te veo en el cielo
F#
Te veo en el cielo


Coro:

SI                         MI
Aun más que perderte me duele más
    G#m
Los años que no
 F#
Estuve a tu lado
SI                  MI
Quiero correr hacia ti
   G#m
Te quiero enseñar
F#
Lo que he logrado
 SI
Pues lo que mas duele
   MI           G#m
Es ya no poder vivir
 F#
Junto a ti


MI
Veo en la foto
          F#
Un pequeño que
Solo esta
G#m            C#m
Queriéndote hallar
                    G#m
Es increíble como crecio
           F#
Aun así solo el continuo

MI         F#     G#m
Hubiera deseado estar
               F#
En tus brazos otra vez
 SI                 C#m
Aunque ya no estés aquí
  G#m
Allá te abrazo
F#
Te abrazo en el cielo


Coro


MI
Pues muchos años
         F#
Yo deje pasar
                  G#m
Creí en control están
C#m
Ahora veo que no es así
  G#m
Se a terminado te debo dejar ir

F#   MI F# G#m

(Esta parte es lenta 1 rasgueo por nota)

MI   F#        G#m
Solo un minuto nada más
     G#m     F#    SI
Hubiera querido decir
         C#m       G#m
Te amo mas te lo diré
Allá en el cielo
F#
Allá en el cielo


Coro


Debes llevar el ritmo que tiene la canción  
marcando las notas y cortando el sonido, 
seria bueno que primero la escucharan.


                                    Que DIOS  los Bendiga
Suggest correction
Give kudos to tab author, rate the tab!
1 2 3 4 5
comments
print report bad tab
guest
You may want to rate the tab now too:
select rating
Wanna post a correction for this tab? Suggest correction