Oops, an error
Loading. Please wait.

Te Veo En El Cielo Tab

version 3
version 3

Whole song

47 views 1 this week
no commentswrite comment
1 2 3 4 5
3 more votes to show rating
add to favorites
launch autoscroll
font size
0
reset
how to read this tab
guitar tuner
Autoscroll
slow
fast
+/-
esc
set tempo
stop
esta cancion es muy facil hay algunas cosas
que se tienen que arreglar.


E------------------3S5--3------------
B--1---3--5--3--1----------5---3-------
G------------------3S5--3-------------
D--2---3--5--3--2----------5---3--------
A---------------------------------------
E----------------------------------------

E---------------------------------------
B--1---3--5--3----------1S3------------
G-------------------0H2----------------
D--2---3--5--3--0H2--------------------


E---------------3S5---3--5S7--3--7S10
B--1---3--5--3-----------------------
G---------------3S5---3--527--3--7S10
D--2---3--5--3-----------------------


E--8S10--8--------------------------
B----------10--8S10-----------------
G-------------------9--7S9----------
D-----------------------------------


E----------------------------0H1H3-1--3
B-------------0--0--1----0H1-2--------3
G--0--0--2--2--------0H2--------------0
D-------------------------------------0
A-------------------------------------2
E-------------------------------------3


E--3S5---3--------
B----------3S5--3
G--3S5---3-------
D----------3S5--3

ESTROFA

I.-
C              Dm
Es muy dificil esperar
      Am            G#
y un adios asi dar a tiempo
C                   Dm
siempre el sol se ocultara
Am            G#
concluyendo lo nuestro
  F          G    Am
Hubiera deseado estar
     Dm        Am    G
y un dia mas contigo pasar
F            G     Am
aunque ya no estes aqui
             G
Te veo en el cielo, te veo en el cielo

Coro.-
C                         F
Aun mas que perderte me duele mas
     Am          G
los años que no estuve a tu lado
C                   F
quiero correr hacia ti,
   Am            G
te quiero enseñar lo que he logrado
     Dm        Am
pues lo que mas duele
      F          G  C          F G
es ya no poder vivir junto a ti

I.-MISMA SECUENCIA

Veo el retrato de un pequeño que
solo esta
queriendote hallar
es increible como crecio
aun asi
solo el continuó
hubiera deseado estar
en tus brazos otra vez
aunque ya no estes aqui
alla te abrazo, te abrazo en el cielo

Coro

II.-
A#                     Dm
Pues muchos años yo deje pasar
   C#                  C
crei que en control estan
A#                 Am
ahora que veo que no es asi
   G#
se ha terminado
              G
te devo dejar ir

     F        G    Am
Solo un minuto nada más
   Dm       Am     G
hubiera querido decir
   F           G    Am
Te amo mas te lo diré
            G
allá en el cielo, allá en el cielo.
Coro

Te veo en el cielo
Suggest correction
Give kudos to tab author, rate the tab!
1 2 3 4 5
comments
print report bad tab
guest
You may want to rate the tab now too:
select rating
Wanna post a correction for this tab? Suggest correction