Oops, an error
Loading. Please wait.

Titanic Tab

642 views 6 this week
no commentswrite comment
1 2 3 4 5
3 more votes to show rating
add to favorites
launch autoscroll
font size
0
reset
how to read this tab
guitar tuner
×
Best way to learn
"Titanic"
Autoscroll
slow
fast
+/-
esc
set tempo
stop
Hola, soy levi dan, esta es mi primera transcripción
Espero les guste?

Guardianes del amor
Titanic

Melodia


1(2X) y 2(2X) estrofa

e -8-8-8-|-8-7-8-|-8-7-8-10-12-10-|-8-8-8-8-|-7-8-8-3
B -------|-------|----------------|---------|--------
G -------|-------|----------------|---------|--------
D -------|-------|----------------|---------|--------
A -------|-------|----------------|---------|--------
E -------|-------|----------------|---------|--------

Coro Central

e -10-3-15-|-13-12-10-|-12-13-12-|-10-8-7-8--7-5
  ---------|----------|----------|--------------
  ---------|----------|----------|--------------
  ---------|----------|----------|--------------
  ---------|----------|----------|--------------
  ---------|----------|----------|--------------


e 10-3-15-|-13-12-10-3-15-|-12-13-12-10--8-8--7--8-|
  --------|---------------|------------------------|
  --------|---------------|------------------------|
  --------|---------------|------------------------|
  --------|---------------|------------------------|
  --------|---------------|------------------------|


e 8--7--8-10-12-10-8-
  -------------------
  -------------------
  -------------------
  -------------------
  -------------------

Coro Final

 e -10-3-15-|-13-12-10-|-12-13-12-|-10-8-7-8--7-5
   ---------|----------|----------|--------------
   ---------|----------|----------|--------------
   ---------|----------|----------|--------------
   ---------|----------|----------|--------------
   ---------|----------|----------|--------------


e 10-3-15-|-13-12-10-|-12-13-12-10--8-8--7--8-|
  --------|----------|------------------------|
  --------|----------|------------------------|
  --------|----------|------------------------|
  --------|----------|------------------------|
  --------|----------|------------------------|


e 8--7--8-10-12-10-8-
  -------------------
  -------------------
  -------------------
  -------------------
  -------------------


Los siguientes punteos se hacen en la primera cuerda Mi menor (e)
ya con los tiempos mas detallados segun la letra

Canción


"1 estrofa"

Cada noche sueño contigo, contigo
-8--8--8-|8-7-8-|-8-7--8--10-12-10

sé que aun existes amor
-8-8-8-8-|-7-8--8---3

siempre en la distancia podremos a-marnos
---8--8--8----|8--7---8-|8-7--8--10-12-10

sigues en mis sueños amor
-8--8--8--8-|-7-8--8---3


"coro central"

Tu, yo eterna  pasión
10--3-15-|-13--12-10

siempre habrá la esperanza amor
-12--13--12--|10-8--7--8---7-5

si ves en donde tu estés
10-3--15--13---12---10

yo te llevo en el alma
12-13-12-10--8-8--7--8

mi alma te seguirá
8--7--8-10-12-10-8


"2 estrofa"

El amor nos llega y nunca nos de-ja
8--8--8-|8---7-8-|-8-7--8--10-12-10

sigues siendo luz en mi ser
-8--8--8--8-|--7---8--8--3

no podre olvidarte dejar de a--marte
-8-8--8-|-8-7---8-|-8-7---8-10-12-10

sigues en mi adentro que es
-8--8--8--8-|-7--8----8---3


"coro central"

Tu, yo eterna pasión
10--3-15-|-13--12-10

siempre habrá la esperanza amor
-12--13--12--|10-8--7--8---7-5

si ves en donde tu estés
10-3--15--13-12-10-3---15

yo te llevo en el alma
12-13-12-10--8-8--7--8

mi alma te seguirá
8--7--8-10-12-10-8


"coro final"

Amor no siento temor
10---3--15-|13-12-10

yo sé bien que en mi alma estas
12-13-12--|-10--8--7--8---7-5

tu, yo eterna canción
10--3-15-|-13--12-10

yo te llevo en el alma
12-13-12-10--8-8--7--8

mi alma te seguirá....
8--7--8-10-12-10-8
Suggest correction
Give kudos to tab author, rate the tab!
1 2 3 4 5
comments
print report bad tab
guest
You may want to rate the tab now too:
select rating
Wanna post a correction for this tab? Suggest correction