Oops, an error
Loading. Please wait.

Amaneciendo Tab

version 1
version 1

Whole song

29 views 1 this week
no commentswrite comment
1 2 3 4 5
3 more votes to show rating
add to favorites
launch autoscroll
font size
0
reset
how to read this tab
guitar tuner
×
Best way to learn
"Amaneciendo"
Autoscroll
slow
fast
+/-
esc
set tempo
stop
Intro: [E5 B5 A5 E5]x4

e|------7--------------------------------------------|----|
B|-9br----9-10-9-7-----------------------16-16-16-16-|----|
G|-----------------8br----8-9-8--6br-6/15----15------|----|
D|---------------------------------------------------|-x4-|
A|---------------------------------------------------|----|
E|---------------------------------------------------|----|

[Verso]

B5*                       A5
Si te extraño no es extraño,
B5*                  A5
si me caigo es por vos,
B5*              C#5                E5(III)
en la calle dicen, que somos felices y,
    B5             arreglo 1
no existe la razon.

e|------------------------------------------|----|---------------------------------|
B|------------------------------------------|----|---------------------------------|
G|------------------------------------------|----|------------------9-x------------|
D|-------------9x---7------7-7-7-6-7-7------|-x2-|------------11-x--9-x--9-x-------|
A|-------------9x-x-7-x-x--7-7-7-6-7-7------|----|------------11-x--7-x--9-x-------|
E|-5-2-5-5/(7)-7x-x-5-x-x-------------------|----|-7-5-7-7/9--9--x-------7-x-------|

(arreglo 1)
e|----------------------------|
B|----------------------12----|
G|-9-9h11h9----9--9/11b----11-|
D|----------11----------------|
A|----------------------------|
E|----------------------------|


[Verso]

B5*                  A5
De dejarte para siempre,
B5*                  A5
cuando fuiste mucho mas,
B5*                  C#5                        E5(III)
que mi eterna compañera, y que hisiste lo que quieras,
                    B5
porque asi lo quise yooo.


[Estribillo]

E5            B5
Creo que esta amaneciendo,
                 A5           E5
y lo que estoy haciendo me pone peor,
              B5
pero yo vivo a mi forma,
             A5          E5
sin reglas ni normas es mucho mejor.
E5            B5
Creo que esta amaneciendo,
                 A5           E5
y lo que estoy haciendo me pone peor,
              B5
pero yo vivo a mi forma,
             A5          E5
sin reglas ni normas es mucho mejor.


[Verso]

Si te digo lo que pienso,
y te aprecio por amor,
a la gente que burla, y a los otros que se asustan,
no saben quien soy.

[Verso]

Y tu sexo mas profundo,
y tu golpe de valor,
Cupido te pido, que te hagas amigo,
de la noche y del dolooooor.

[Estribillo]

E5            B5
Creo que esta amaneciendo,
                 A5           E5
y lo que estoy haciendo me pone peor,
              B5
pero yo vivo a mi forma,
             A5          E5
sin reglas ni normas es mucho mejor.
E5            B5
Creo que esta amaneciendo,
                 A5           E5
y lo que estoy haciendo me pone peor,
              B5
pero yo vivo a mi forma,
             A5          E5
sin reglas ni normas es mucho mejor.


e|-----------------------------------------------------------7-------------------------9-12-11-----9b-|
B|--9b-7v----9h7-------7---------10-12--14-12v-----9h7--7-9b---9v-----10-12--14-12v--12-------12-9----|
G|----------------9-6-9--(6v)--------------------------9----------------------------------------------|
D|----------------------------------------------------------------------------------------------------|
A|----------------------------------------------------------------------------------------------------|
E|----------------------------------------------------------------------------------------------------|


e|-9-9h11h12-9-9h11h12-9h11h12-/-14-12--14b-14b-12----12b----|
B|-------------------------------------------------14--------|
G|-----------------------------------------------------------|
D|-----------------------------------------------------------|
A|-----------------------------------------------------------|
E|-----------------------------------------------------------|

[Estribillo]

E5            B5
Creo que esta amaneciendo,
                 A5           E5
y lo que estoy haciendo me pone peor,
              B5
pero yo vivo a mi forma,
             A5          E5
sin reglas ni normas es mucho mejor.
E5            B5
Creo que esta amaneciendo,
                 A5           E5
y lo que estoy haciendo me pone peor,
              B5
pero yo vivo a mi forma,
             A5          E5
sin reglas ni normas es mucho mejor.

e|------7--------------------------------------------|----|
B|-9br----9-10-9-7-----------------------16-16-16-16-|----|
G|-----------------8br----8-9-8--6br-6/15----15------|----|
D|---------------------------------------------------|-x4-|
A|---------------------------------------------------|----|
E|---------------------------------------------------|----|


aguante los guasones y el ghetto del rey!!
Suggest correction
Give kudos to tab author, rate the tab!
1 2 3 4 5
comments
print report bad tab
guest
You may want to rate the tab now too:
select rating
Wanna post a correction for this tab? Suggest correction