Oops, an error
Loading. Please wait.

Amaneciendo Tab

version 2
version 2

Whole song

19 views 1 this week
no commentswrite comment
1 2 3 4 5
3 more votes to show rating
add to favorites
launch autoscroll
font size
0
reset
how to read this tab
guitar tuner
Autoscroll
slow
fast
+/-
esc
set tempo
stop
Help us to improve Ultimate-Guitar.com Take our survey!
×
Intro: [E5 B5 A5 E5]x4

Riff intro
e|---------------------7-7-------5-5---------12-12---12-|----|
B|-----12----10/9/7-------------------------------------|----|
G|--11b---11b--------8-----8--6pb----6--6/13------13----|----|
D|------------------------------------------------------|-x4-|
A|------------------------------------------------------|----|
E|------------------------------------------------------|----|

[Verso]

B5                         A5
Si te extraño no es extraño,
B5                        A5
si me caigo es por vos,
B5              C#5                A5
en la calle dicen, que somos felices y,
    B5
no existe la razon.

Este arreglo lo hace cuando va A5 (podes hacerlo o tocar el acorde)
e|----------------------------|
B|----------------------------|
G|----------------------------|
D|-7-7-7-6--7--7----7-6-7/9---|
A|-7-7-7-7--7--7----7-7-7/9---|
E|-5-5-5-5--5--5----5-5-5/7---|
[Verso]

B5                      A5
De dejarte para siempre,
B5                      A5
cuando fuiste mucho mas,
B5                    C#5                        A5
que mi eterna compañera, y que hisiste lo que quieras,
                    B5
porque asi lo quise yooo.


[Estribillo]

E5            B5
Creo que esta amaneciendo,
                 A5           E5
y lo que estoy haciendo me pone peor,
                   B5
pero yo vivo a mi forma,
                 A5          E5
sin reglas ni normas es mucho mejor.
E5            B5
Creo que esta amaneciendo,
                 A5           E5
y lo que estoy haciendo me pone peor,
                    B5
pero yo vivo a mi forma,
                  A5          E5
sin reglas ni normas es mucho mejor.


[Verso]

Si te digo lo que pienso,
y te aprecio por amor,
a la gente que burla, y a los otros que se asustan,
no saben quien soy.

[Verso]

Y tu sexo mas profundo,
y tu golpe de valor,
Cupido te pido, que te hagas amigo,
de la noche y del dolooooor.

[Estribillo]

E5            B5
Creo que esta amaneciendo,
                 A5           E5
y lo que estoy haciendo me pone peor,
                     B5
pero yo vivo a mi forma,
                   A5          E5
sin reglas ni normas es mucho mejor.
E5            B5
Creo que esta amaneciendo,
                 A5           E5
y lo que estoy haciendo me pone peor,
                     B5
pero yo vivo a mi forma,
                   A5          E5
sin reglas ni normas es mucho mejor.


Solo
e|------------------------------------------|
B|---------------------------------------12-|
G|--11b--11----11b-9----9h11-------11/13----|
D|-------------------11-------11------------|
A|------------------------------------------|
E|------------------------------------------|

e|--------------------------------------------------------------|
B|-12h14---12------------------12--------------------12---12h14-|
G|---------------11b-9----11b~-------11bd-----11/13-------------|
D|--------------------------------------------------------------|
A|--------------------------------------------------------------|
E|--------------------------------------------------------------|

e|--------------12--11------------------------------------------|
B|----12-12/14---------12-----14~----------15---------------15--|
G|------------------------13----------14bu----14bd-12---14bu----|
D|--------------------------------------------------------------|
A|--------------------------------------------------------------|
E|--------------------------------------------------------------|

e|-------------------------------------------------------------|
B|------15---------------15--------------15----------15/17--15-|
G|---14----14bd-12--14bu---14bd-12--14bu---14bd-12-------------|
D|-------------------------------------------------------------|
A|-------------------------------------------------------------|
E|-------------------------------------------------------------|

e|---------------------|
B|-17b--17b---17-15-17-|
G|---------------------|
D|---------------------|
A|---------------------|
E|---------------------|


[Estribillo]

E5            B5
Creo que esta amaneciendo,
                 A5           E5
y lo que estoy haciendo me pone peor,
                   B5
pero yo vivo a mi forma,
                   A5          E5
sin reglas ni normas es mucho mejor.
E5            B5
Creo que esta amaneciendo,
                 A5           E5
y lo que estoy haciendo me pone peor,
                   B5
pero yo vivo a mi forma,
                  A5          E5
sin reglas ni normas es mucho mejor.


aguanten los guasones
Corregido Por Gonza P.
Suggest correction
Give kudos to tab author, rate the tab!
1 2 3 4 5
comments
print report bad tab
guest
You may want to rate the tab now too:
select rating
Wanna post a correction for this tab? Suggest correction