Oops, an error
Loading. Please wait.

Como Un Lobo Tab

81 views 1 this week
no commentswrite comment
1 2 3 4 5
2 more votes to show rating
add to favorites
launch autoscroll
font size
0
reset
how to read this tab
guitar tuner
Autoscroll
slow
fast
+/-
esc
set tempo
stop
Gente que escucha guasones le dejo este tema
que en mi opinión esta bastante bien sacado.
Escuche bien la parte de lo Riff.
La intro esta mazo porque lo saque con una guitarra criolla.
AGUNTE EL ROCK AND ROLL Y GUASONES!!!!!!!!

Intro
e--------------------------
B----------------------3---
G---1/2-1/2------------2---
D---1/2-1/2---44----2------
A-------------44----2------
E-------------22-----------

Riff 1
e-------------------
B------------3------
G------------2------
D---44----2---------
A---44----2---------
E-- 22--------------

Riff 2
e--------------------
B--------------------
G---1/2----1/2-------
D---1/2----1/2-------
A--------------------
E--------------------


Riff 1                  Riff 1
Ruidos, escucho en el pasillo ruidos de terror
Riff 1                Riff 1               Riff 2
Voces, que se quiebran vomitando su perdon
Riff 1            Riff 1
Gente, pasa mucha gente por este lugar
Riff 1  Riff 2        Riff 1
Dejan, locura divina vamos a bailar


Estribillo corto:

A               B              A          B
Y como un lobo, de medianoche, vamos a recorrer
A                    B              A        B
El bosque a oscuras, es una locura, ya vas a ver

Estrofa:

Risas, risas q te duelen pero igual reis
Caras, caras dibujadas por un infeliz
Perlas, pasan muchas perlas negras por aca
Dejan, locura divina vamos a bailar


Estribillo largo:

Riff 3
e---------------
B---------------
G---------------
D-----------2 QUEDA
A-----------2 EN ESTA 
Suggest correction
Give kudos to tab author, rate the tab!
1 2 3 4 5
comments
print report bad tab
guest
You may want to rate the tab now too:
select rating
Wanna post a correction for this tab? Suggest correction