Oops, an error
Loading. Please wait.

Decime La Verdad Chords

version 2
version 2

Whole song

7 views 1 this week
no commentswrite comment
1 2 3 4 5
3 more votes to show rating
add to favorites
×
Save as Personal and add changes to this tab that will be seen only by you. Learn more ›
×
You can save this tab as Personal to edit and correct it or add notes. All changes will be seen only by you. Learn more »
save as personal
new!
launch autoscroll
font size
0
reset
transpose
0
reset
display chords
guitar tuner
Autoscroll
slow
fast
+/-
esc
set tempo
stop
Strumming
There is no strumming pattern for this song yet. and get +5 IQ
Intro

e|---------------|
B|-------5-4-----|
G|-------4-4-----|
D|---------------|
A|-2-------------|
E|-0-------------| (repetir cuantas veces sea necesario)

Intro
Tiradas en el piso
Fotos rotas encontré
La habitación en llamas
No me duele saber

F#m            A
Que todo termino
F#m            A    B
Que todo ya paso

Intro
Y vos que no dudabas
De nuestra eternidad
Te pido corazón
Que vuelvas a mirar

F#m                 A
Por que a tu alrededor
F#m           A    B
Ya nada es igual

1ra guitarra
e|-------------------------------------------------|
B|-------------------------------------------------|
G|--------------------------------9----------------|
D|-7--------------9---------------9------9--11--11-|
A|-7--------------9---------------7------9--11--11-|
E|-5--------------7----------------------7--9---9--|
Y caminar por el balcon Ya no es una tentación

2da guitarra
   A              B               E      B  C#m
Y caminar por el balcon ya no es una tentación
A          B              E     B     C#m
Decime la verdad si total no voy a saltar
    A            B      E     B     C#m
Espero una respuesta a tanta confusión

Cuando algo se quiebra
Y esos pedazos caen
Mis manos que te sueltan
Por miedo a fracasar
La vida me enseño
Que no hay más de un adiós

Y en cristal, mi vida
Siempre te guarde
Hoy armo mi camino
Y a la cuenta de tres
Yo brindo por tu amor
Estupida razón.

Y caminar por el balcón
Ya no es una tentación
Decime la verdad
Si total no voy a saltar
Espero una respuesta
A tanta confusión


e|-4--4-4--4-4--4--4-4-|-5--5-5--5-5--5--5-5-|
B|-5--5-5--5-5--5--5-5-|-5--5-5--5-5--5--5-5-|
G|---------------------|---------------------|
D|---------------------|---------------------| (x3)
A|---------------------|---------------------|
E|---------------------|---------------------|

e|-------------|
B|-------------|
G|-------------|
D|---7^9-------|
A|-------------| ^ = Estirar
E|-------------|

A                 B
Y caminar por el balcón
            E    B    C#m
Ya no es una tentación
A          B
Decime la verdad
          E     B     C#m
Si total no voy a saltar
    A            B
Espero una respuesta
      E     B    C#m
A tanta confusión

Outro A - B
Suggest correction
Give kudos to tab author, rate the tab!
1 2 3 4 5
comments
print report bad tab
guest
Wanna post a correction for this tab? Suggest correction