Oops, an error
Loading. Please wait.

Es Tarde Bass Tab

22 views 1 this week
no commentswrite comment
1 2 3 4 5
3 more votes to show rating
add to favorites
launch autoscroll
font size
0
reset
guitar tuner
Autoscroll
slow
fast
+/-
esc
set tempo
stop
Help us to improve Ultimate-Guitar.com Take our survey!
×
Intro, Estrofa

1/---------------------------------------------------
2/---------------------------4-----------------------
3/-5-5-----5---------5---------5-----5---------5-----
4/------3-----3---5---------------3-----3----5-------

Estribillo

1/---------------------------------------------------
2/-----(4-2)-----------------------------------------
3/--2-------5-0-5----------5-------------------------
4/----2-------------3---5----------------------------

Solo

1/-------------------------------------------12-11---
2/--------2-4-5----------------------------------12--
3/--5-5---------5---------5-----------------------12-
4/-----------------3---5-----------------------------

1/-----------------------------------------7-------11
2/-----------------------------------7---9-----------
3/--5-5-------5-----------5--------------------------
4/-------3--------3----5-----------------------------

Final

2/----0000000000000000000000000-0--------------------
Repite
3/----------2-4-5-----
4/-3---3-5------------
Suggest correction
Give kudos to tab author, rate the tab!
1 2 3 4 5
comments
print report bad tab
guest
You may want to rate the tab now too:
select rating
Wanna post a correction for this tab? Suggest correction