Oops, an error
Loading. Please wait.

Estrellas Tab

40 views 1 this week
no commentswrite comment
1 2 3 4 5
3 more votes to show rating
add to favorites
launch autoscroll
font size
0
reset
how to read this tab
guitar tuner
×
Best way to learn
"Estrellas"
Autoscroll
slow
fast
+/-
esc
set tempo
stop
Espero que guste:

|1|------------------------------------------------------------------
|2|----15-12-------------------------------------------------15------
|3|-14b-----14-12-------1212------12--12-14r-12-12-13---14/16---14-12
|4|----------------12h14-----12h14--14---------------14--------------
|5|------------------------------------------------------------------
|6|------------------------------------------------------------------

|1|-----15--15-------------15---------------
|2|15h17--17--17-15---15h17--17-15----------
|3|--------------------------------16-14----
|4|-----------------------------------------
|5|-----------------------------------------
|6|-----------------------------------------

|1|---------------------------------------
|2|---15-12-------------------------------
|3|14b-----14b14-12---12-14r-12-12--------
|4|-----------------14--------------------
|5|---------------------------------------
|6|---------------------------------------

|1|----------------15--15----------------------------------------------
|2|15h17-1515-15h17--17-17-15-12-----15-12-----------------------------
|3|-----------------------------14-14b---14b1414-12-12-14b-14-12-14-14-
|4|-----------------------------------------------14-------------------
|5|--------------------------------------------------------------------
|6|--------------------------------------------------------------------

 Bend and release (R): Hacer un bend y nada mas soltar
 pero volviendo a arrastrar al lugar original.
Suggest correction
Give kudos to tab author, rate the tab!
1 2 3 4 5
comments
print report bad tab
guest
You may want to rate the tab now too:
select rating
Wanna post a correction for this tab? Suggest correction