Oops, an error
Loading. Please wait.

Fiebre Tab

version 1
version 1

Whole song

13 views 1 this week
no commentswrite comment
1 2 3 4 5
3 more votes to show rating
add to favorites
launch autoscroll
font size
0
reset
how to read this tab
guitar tuner
Autoscroll
slow
fast
+/-
esc
set tempo
stop
Help us to improve Ultimate-Guitar.com Take our survey!
×
   Am-G-E
                 Am                           G       E
e|-----------------------------------------|------|---------|
B|-----------------------------------------|------|---------|
G|-----------------------------------------|------|---------|
D|-----------------------------------------|----5-|------2--|
A|------------------------------------2----|---5--|----2----|
E|--0-3-5-3-55---0-3-5-3-55--0-3-5-3-5---5-|(3)---|-(0)-----|

------------------------------------------------------------------------------

Am
Hoy escucho tus palabras
G          E
Como un anhelo
Am
Distante, absurdo
G            E
Destino incierto de dos
------------------------------------------------------------------------------
    Am-G-E
                 Am                           G       E
e|-----------------------------------------|------|---------|
B|-----------------------------------------|------|---------|
G|-----------------------------------------|------|---------|
D|-----------------------------------------|----5-|------2--|
A|------------------------------------2----|---5--|----2----|
E|----3-5-3-55---0-3-5-3-55--0-3-5-3-5---5-|(3)---|-(0)-----|

------------------------------------------------------------------------------
Am
Maravilla encontrada
G           E
en el calor de algun bar
Am
si pienso tu rumbo
G           E
no lo imagino

------------------------------------------------------------------------------

         F                 G                  G              F            E
e|----------------|------------------|-----------------|------------|-----------------|
B|----------------|------------------|-----------------|------------|-----------------|
G|--5h4-----------|-5h4--------------|-5h4-------------|-5h4--------|-9-9-9-9-9-9-9-9-|
D|------7h5-3--3-3|-----5h3/5-5--5-5-|-----7h5-3---3-3-|-----5h3/5--|-9-9-9-9-9-9-9-9-|
A|----------3--3-3|-----------5--5-5-|---------3---3-3-|------------|-7-7-7-7-7-7-7-7-|
E|----------1--1-1|-----------3--3-3-|---------1---1-1-|------------|-0-0-0-0-0-0-0-0-|
F            G
De vos, para vos
F          G    E
Si yo no soy yo

------------------------------------------------------------------------------
        Am         G     F             Am     G      F
e|---------------|----|-------|----|--------|-----|----|
B|---------------|----|-------|----|--------|-----|----|
G|-2/5-5---------|----|-------|----|-3/5-5--|-----|----|
e|-3/5-5-7-5-5-7-|---5|----3--|-X3-|-3/5-5--|---5-|--3-|
B|-------7-5-5-7-|3/5-|-1/3---|----|--------|-5/--|3/--|
G|---------------|----|-------|----|--------|-----|----|
Am           G-F
Sin amor, sin dolor
Am           G-F
Sin un gramo de locura
Am           G-F
Para olvidarme de vos

------------------------------------------------------------------------------
    Am-G-E
                 Am                           G       E
e|-----------------------------------------|------|---------|
B|-----------------------------------------|------|---------|
G|-----------------------------------------|------|---------|
D|-----------------------------------------|----5-|------2--|
A|------------------------------------2----|---5--|----2----|
E|----3-5-3-55---0-3-5-3-55--0-3-5-3-5---5-|(3)---|-(0)-----|

------------------------------------------------------------------------------
Am
Soy esclavo de disfraces
G           E
Cada palabra,
Am
heridas, consuelos,
G           E
Brilla el silencio

------------------------------------------------------------------------------

F            G
De vos, para vos
F          G    E
y yo no soy yo

------------------------------------------------------------------------------
Am           G-F
Sin amor, sin dolor
Am           G-F
Sin un gramo de locura
Am           G-F
Para olvidarme de vos

------------------------------------------------------------------------------
A5-F5-C5-D5 x4
------------------------------------------------------------------------------
Sin amor, sin dolor
Sin un gramo de locura
Para olvidarme de vos
Sin amor, sin dolor
Sin amor, sin dolor
amor dolor
Suggest correction
Give kudos to tab author, rate the tab!
1 2 3 4 5
comments
print report bad tab
guest
You may want to rate the tab now too:
select rating
Wanna post a correction for this tab? Suggest correction