Oops, an error
Loading. Please wait.

Fiebre Tab

version 2
version 2

Whole song

10 views 1 this week
no commentswrite comment
1 2 3 4 5
3 more votes to show rating
add to favorites
launch autoscroll
font size
0
reset
how to read this tab
guitar tuner
Autoscroll
slow
fast
+/-
esc
set tempo
stop
Help us to improve Ultimate-Guitar.com Take our survey!
×
Fiebre en vivo (obras 2006)

         Am           G    F
e|-----------------|-----|----------
B|-----------------|-----|----------
G|-----------------|-----|----------
D|-----------------|-----|----------
A|--------3--------|-----|----------
E|--0-3-5---5 3-55-|-3---|-1--------
        Am   G   F
e|---------|---|--------------------
B|---------|---|--------------------
G|---------|---|--------------------
D|---------|---|--------------------
A|---------|---|--------------------
E|--0-3-55-|-3-|-1------------------

               Am                           G       E
e|-----------------------------------------|------|---------|
B|-----------------------------------------|------|---------|
G|-----------------------------------------|------|---------|
D|-----------------------------------------|----5-|------2--|
A|------------------------------------2----|---5--|----2----|
E|--0-3-5-3-55---0-3-5-3-55--0-3-5-3-5---5-|(3)---|-(0)-----|

Am
Hoy escucho tus palabras
G          E
Como un anhelo
Am
Distante, absurdo
G            E
Destino incierto de dos

    Am-G-E
                 Am                           G       E
e|-----------------------------------------|------|---------|
B|-----------------------------------------|------|---------|
G|-----------------------------------------|------|---------|
D|-----------------------------------------|----5-|------2--|
A|------------------------------------2----|---5--|----2----|
E|----3-5-3-55---0-3-5-3-55--0-3-5-3-5---5-|(3)---|-(0)-----|


Am
Maravilla encontrada
G           E
en el calor de algun bar
Am
si pienso tu rumbo
G           E
no lo imagino

F            G
De vos, para vos
F          G    E
Si yo no soy yo
Am          G  F G
Sin amor, sin dolor
Am           G F G
Sin un gramo de locura
Am           G  F  G
Para olvidarme de vos


Am
Soy esclavo de disfraces
G           E
Cada palabra,
Am
heridas, consuelos,
G           E
Brilla el silencio


F            G
De vos, para vos
F          G    E
y yo no soy yo


Am           G  F  G
Sin amor, sin dolor
Am           G  F  G
Sin un gramo de locura
Am           G  F  G
Para olvidarme de vos


Sin amor, sin dolor
Sin un gramo de locura
Para olvidarme de vos
Sin amor, sin dolor
Sin amor, sin dolor
amor dolor
Suggest correction
Give kudos to tab author, rate the tab!
1 2 3 4 5
comments
print report bad tab
guest
You may want to rate the tab now too:
select rating
Wanna post a correction for this tab? Suggest correction