Oops, an error
Loading. Please wait.

Flores Negras Tab

66 views 1 this week
no commentswrite comment
1 2 3 4 5
3 more votes to show rating
add to favorites
launch autoscroll
font size
0
reset
how to read this tab
guitar tuner
×
Best way to learn
"Flores Negras"
Autoscroll
slow
fast
+/-
esc
set tempo
stop
Acá van los solitos del tema, con las referencias al final...
Cualquier duda o consulta a mi mail...

Saludos

"Nena te extraño..."

======================================================================

Flores Negras
(Guasones)


0:52

e|------------------------------------------------------------------------|
B|---------------------8------5h6~~p---------8-----8-6-5-6--p(5)h(6)p(5)--|
G|--7h9h10~~p9p7/5-7h9---9~~---------7-5-7h9---9~-------------------------|
D|------------------------------------------------------------------------|
A|------------------------------------------------------------------------|
E|------------------------------------------------------------------------|

1:33

"... Ni el perdón..."

e|--------------------------|
B|--6/8-6-5-6~~-------------|
G|--------------------------|
D|--------------------------|
A|--------------------------|
E|--------------------------|


2:06

e|------------------------------------------------------------------------|
B|---------------------8-----------------------------------------8--------|
G|-7h9h10~~p9p7----7h9---9~~--9b10~r9p7------7h9h10~~p9p7----7h9---9~-----|
D|--------------10----------------------10~~--------------10--------------|
A|------------------------------------------------------------------------|
E|------------------------------------------------------------------------|

e|------------------------------------------------------------------------|
B|---(5)-(5)-(5)--5---5---5---5-h6---6---6-h8---8-------------------------|
G|-(5)-(5)-(5)--5---5---5---5------5---5------5---5-----------------------|
D|------------------------------------------------------------------------|
A|------------------------------------------------------------------------|
E|------------------------------------------------------------------------|


3:58 (Final)

e|---------------------8~~----------|
B|------5h6~-p---------8~~----------|
G|--5h7---------7-5-7---------------|
D|----------------------------------|
A|----------------------------------|
E|----------------------------------|


======================================================================

Referencias:
===========

9b10: Bend. Estirar la cuerda desde el traste 9 hasta que suene
      como el traste 10.

5h6: Ligado Ascendente (Hammer On). Si se encuentran separados
     el primer número del segundo (5 h6), significa hacer una
     pausa antes de ligar.

9p7: Ligado Descendente (Pull Off). Si se encuentran separados
     el primer número del segundo, significa hacer una pausa
     antes de ligar.

~: Dejar Sonar.

r: Release. Después de una estirada, volver a la nota original.

(5): Nota fantasma. (Sonido débil)


** Todo lo que se encuentra en la tab,
es combinación de lo explicado arriba **
Suggest correction
Give kudos to tab author, rate the tab!
1 2 3 4 5
comments
print report bad tab
guest
You may want to rate the tab now too:
select rating
Wanna post a correction for this tab? Suggest correction