Oops, an error
Loading. Please wait.

Gracias tab

version 1
version 1

Whole song

59 views 1 this week
no commentswrite comment
1 2 3 4 5
3 more votes to show rating
add to favorites
×
Save as Personal and add changes to this tab that will be seen only by you. Learn more ›
×
You can save this tab as Personal to edit and correct it or add notes. All changes will be seen only by you. Learn more »
launch autoscroll
font size
0
reset
how to read this tab
guitar tuner
edit
Autoscroll
slow
fast
+/-
esc
set tempo
stop
La intro y el solo se pueden hacer con slide o sin él,
es mas o menos lo mismo.

los acordes que hay arriba de las tablaturas son los acordes de
LA segunda viola

Intro x2
  D    Riff 1  D   Riff 1
e------------------------3
B------6-5-----------1---3
G----7----7-7-----7--0-0-0
D-4/7----------4/7---2-0-0
A------------------------2
E------------------------3

Riff 1

e-----3
B-1---3
G-0-0-0
D-2-0-0
A-----2
E-----3


Estrofa:(el acorde re se toca dos veces, escuchar el tema)
(Siempre repite lo mismo)
    D        D  Riff 1
Lo mejor para mi
y lo mejor para vos
fue llegar haste ahi
sin decirnos adios

No me importa si estas,
con tu puto doctor,
con el diez del madrid, una estrella de rock
                                     Riff 1
con don vito, gaviria con el diablo, con dios

Estribillo:
F       Bb       C
Gracias por no volver,
por estar lejos de mi
gracias por olvidar
lo que nunca te di

Intro

Estrofa:(igual que la anterior)

Le escapaste a la ley,
y te tocaste con dios,
y te metiste tambien,
esa azucar marron

(En esta parte pueden ir los acordes o el punteo de la intro
si tocan en un grupo con dos violas puede hacer una cada uno)

Una vez te pedi,
que entraras en razon,
me dijiste que si, me dijiste que no,
y ahora vas moviendo el culo por constitucion

Estribillo

Solo

e------------------------------------------12-13-13-13-12-10-10
B-----6----------------6---------------------------------------
G-7-5---7---7-5----7-5---7--7-5---7-9-10-12--------------------
D-----7---------------7----------------------------------------
A--------------------------------------------------------------
E--------------------------------------------------------------

Estrofa:
(En esta parte pueden ir los acordes o el punteo de la intro
si tocan en un grupo con dos violas puede hacer una cada uno)

Una vez te pedi,
que entraras en razon,
me dijiste que si, me dijiste que no,
y ahora vas moviendo el culo por constitucion

Estribillo

Solo final: x3

  F    Bb    C
e--------------
B--------------
G--------------
D-3-2-3-0-2-3--
A------------3-
E--------------

Saludos!!!!!!

            
            
Suggest correction
Creating personal tab
Creating personal tab
You can edit any tab online and save it as your Personal.

You can edit, replace or remove any tab part or add personal notes – all changes will be seen only by you.

Personal tabs can be accessed anytime from any device, even offline.
Learn more »
Give kudos to tab author, rate the tab!
1 2 3 4 5
comments
print report bad tab
guest
Wanna post a correction for this tab? Suggest correction