Oops, an error
Loading. Please wait.

Gracias Tab

version 2
version 2

Whole song

5 views 1 this week
no commentswrite comment
1 2 3 4 5
3 more votes to show rating
add to favorites
launch autoscroll
font size
0
reset
how to read this tab
guitar tuner
×
Best way to learn
"Gracias"
Autoscroll
slow
fast
+/-
esc
set tempo
stop
iNTRO

  Guitarra 1:
e|--------------------------------|
B|--------------------------------|
G|--------------------------------|
D|-9/(12V)--12/15V-(12)-/10/(12V)-|
A|--------------------------------|
E|--------------------------------|

|------------------------------------|
|------------------------------------|
|------------------------------------|
|--/10/(12V)-12/15V-(12)-/10/(12V)---|
|------------------------------------|
|------------------------------------|
  Guitarra 2:
   Dm             G
e|---------------------|
B|-----------6---------|
G|-5h7--5h7--5-(7)-(7)-|
D|-5h7--5h7----(5)-(5)-|
A|---------------------|
E|---------------------|

------------------------------------------------
Verso:
Dm - G -
Lo mejor para mí
Lo mejor para vos
Fuera llegar hasta ahí
SI decimos adiós

No me importas si estas
Con tu puto doctor
Con el 10 del Madrid
Una estrella,
Con el diablo, con Dios


e|---------------------|
B|-----------6---------|
G|-5h7--5h7--5-(7)-(7)-|
D|-5h7--5h7----(5)-(5)-|
A|---------------------|
E|---------------------|

------------------------------------------------
Estribillo
e|------------------------|
B|------------------------|
G|------------------------|
D|------------------------|
A|-(8v)-7h8-(5v)-7h8-(3v)-|
E|------------------------|
F           Dm          C
Gracias por no volver
F           Dm          C
Por estar lejos de mí
F           Dm          C
Gracias por olvidar
F           Dm          C
Lo que nunca te di.
------------------------------------------------

  Guitarra 1:
e|--------------------------------|
B|--------------------------------|
G|--------------------------------|
D|-9/(12V)--12/15V-(12)-/10/(12V)-|
A|--------------------------------|
E|--------------------------------|

e|----------------------------------------------------|
B|-----------------------(15)-------------------------|
G|-------------------/14------------------------------|
D|--/10/(12V)-12/15V----------12/15-(12V)--10/(12V)---|
A|----------------------------------------------------|
E|----------------------------------------------------|

  Guitarra 2:
   Dm             G
e|---------------------|
B|-----------6---------|
G|-5h7--5h7--5-(7)-(7)-|
D|-5h7--5h7----(5)-(5)-|
A|---------------------|
E|---------------------|

------------------------------------------------
VERSO:
Dm - G -
Le escapaste a la ley
Y te topaste con Dios
Y te metiste también
De esa azúcar marrón

Dm - G -
Una vez te pedí
Que entraras en razón
Me dijiste que si
Me dijiste que no
Y ahora vas moviendo
El culo por Constitución

e|---------------------|
B|-----------6---------|
G|-5h7--5h7--5-(7)-(7)-|
D|-5h7--5h7----(5)-(5)-|
A|---------------------|
E|---------------------|


-------------------------------------------------------
  F           Dm        C
e|------------------------|
B|------------------------|
G|------------------------|
D|------------------------|
A|-(8v)-7h8-(5v)-7h8-(3v)-|
E|------------------------|
F           Dm          C
Gracias por no volver
F           Dm          C
Por estar lejos de mí
F           Dm          C  fill 1
Gracias por olvidar
F           Dm          C
Lo que nunca te di.

   fill 1
e|-----------------------------------------|
B|-----13-13-13-13--------------13--13--13-|
G|-12b-------------14h12-12/14v---14--14---|
D|-----------------------------------------|
A|-----------------------------------------|
E|-----------------------------------------|

-------------------------------------------------------

e|------------------------------------------|
B|------------------------------------------|
G|---(7)------------------------------------|
D|---(7)----/12v--12/10/15-(12v)------------|
A|---(5)--------------------------15/17/15v-|
E|------------------------------------------|

e|---------------------------------------|
B|---------------------------------------|
G|---------------------------------------|
D|--/12-12/10/15-(12v)-------------------|
A|---------------------15/17/15v---------|
E|---------------------------------------|


e|---------------------------|
B|---------------------------|
G|---------------------------|
D|-(12v)-/(14v)-/(15v)-/(17v)|
A|---------------------------|
E|---------------------------|

e|-----------------------------------------------|
B|---(18)-18v-18v-18v-18v-18v--15v-15v-15v-15v---|
G|-----------------------------------------------|
D|-----------------------------------------------|
A|-----------------------------------------------|
E|-----------------------------------------------|

-------------------------------------------------------

Dm - G -

No me importas si estas
Con tu puto doctor
Con el 10 del Madrid
Una estrella,
Con el diablo, con Dios

e|---------------------|
B|-----------6---------|
G|-5h7--5h7--5-(7)-(7)-|
D|-5h7--5h7----(5)-(5)-|
A|---------------------|
E|---------------------|

-------------------------------------------------------

e|------------------------|
B|------------------------|
G|------------------------|
D|------------------------|
A|-(8v)-7h8-(5v)-7h8-(3v)-|
E|------------------------|
F           Dm          C
Gracias por no volver
F           Dm          C
Por estar lejos de mí
F           Dm          C
Gracias por olvidar
F           Dm          C
Lo que nunca te di.

   fill 1
e|-----------------------------------------|
B|-----13-13-13-13--------------13--13--13-|
G|-12b-------------14h12-12/14v---14--14---|...
D|-----------------------------------------|
A|-----------------------------------------|
E|-----------------------------------------|


-------------------------------------------------------
   F         Dm      C
e|------------------------|
B|------------------------|
G|------------------------|
D|------------------------|
A|-(8v)-7h8-(5v)-7h8-(3v)-|
E|------------------------|


fin
Suggest correction
Give kudos to tab author, rate the tab!
1 2 3 4 5
comments
print report bad tab
guest
You may want to rate the tab now too:
select rating
Wanna post a correction for this tab? Suggest correction