Oops, an error
Loading. Please wait.

Gracias Tab

version 3
version 3

Whole song

7 views 1 this week
no commentswrite comment
1 2 3 4 5
3 more votes to show rating
add to favorites
×
Save as Personal and add changes to this tab that will be seen only by you. Learn more ›
×
You can save this tab as Personal to edit and correct it or add notes. All changes will be seen only by you. Learn more »
save as personal
new!
launch autoscroll
font size
0
reset
how to read this tab
guitar tuner
Autoscroll
slow
fast
+/-
esc
set tempo
stop
Esta es la version del "vivo en el luna park"

   Intro:
e|------------------------------------------|
B|------------------------------------------|
G|------------------------------------------|
D|-5s7s12-s15--12s10s12--7-12-10------------|
A|------------------------------------------|
E|------------------------------------------|

e|------------------------------------------|
B|---------------------15--15---------------|
G|-------------------14--14-----------------|
D|-5s7s12-s15-12-12-------------------------|
A|------------------------------------------|
E|------------------------------------------|

  Mientras la segunda guitarra hace esto:
RIFF
e|-----------------|
B|-----------------|
G|--7--5/7--5-0----|
D|--7--5/7--5-0-5--|
A|--5--3/5--3-0-5--|
E|--------------3--|

RIFF
Lo mejor para mi,
Y lo mejor para vos,
fue llegar hasta ahí
sin decirnos adiós
RIFF
Y no me importa si estas
con tu puto doctor
con el 10 de madrid
una estrella de rock
con Don Vito Gaviria
con el diablo o con dios.

  F5      A#5       C5
  Gracias por no volver
e|-----------------------------------------------|
B|---------------------------13-13-13------------|
G|------------------------12b---------12b-12-10--|
D|-----------------------------------------------|
A|-8---7-8-5---7-8-3-----------------------------|
E|-----------------------------------------------|

  F5     A#5      C5
  por estar lejos de mi,
e|-----------------------------------------------|
B|---------------------------13-13-13------------|
G|------------------------12b---------12b-12-10--|
D|-----------------------------------------------|
A|-8---7-8-5---7-8-3-----------------------------|
E|-----------------------------------------------|

  F5      A#5      C5                           F5     A#5      C5
  gracias por olvidar                           lo que nunca te di
e|---------------------------------------------------------------------|
B|---------------------------13-13-13--------------13--------13--------|
G|------------------------12b---------12b-12-10-12b---12b-12b---12b-10-|
D|---------------------------------------------------------------------|
A|-8---7-8-5---7-8-3---------------------------------------------------|
E|---------------------------------------------------------------------|

INTRO

RIFF
Le escapaste a la ley
y te tocaste con dios
y te metiste también
en heroina my love

RIFF
Yo una vez te pedí     que entraras en razón
e|----------------------------------------|
B|----------------------------------------|
G|----------------------------------------|
D|-5s7s12-7-12-7------5s7s12--7-12-7------|
A|----------------------------------------|
E|----------------------------------------|

RIFF
vos me dijiste que si, y yo te dije que no
e|----------------------------------------|
B|----------------------------------------|
G|----------------------------------------|
D|-5s7s12-7-12-7--------------------------|
A|----------------------------------------|
E|----------------------------------------|

RIFF
y ahora vas moviendo el culo por constitución!!
e|----------------------------------------------|
B|----------------------------------------------|
G|----------------------------------------------|
D|---5s7s12---7--12--7--------------------------|
A|----------------------------------------------|
E|----------------------------------------------|


  F5      A#5       C5
  Gracias por no volver
e|-----------------------------------------------|
B|---------------------------13-13-13------------|
G|------------------------12b---------12b-12-10--|
D|-----------------------------------------------|
A|-8---7-8-5---7-8-3-----------------------------|
E|-----------------------------------------------|
  F5     A#5      C5
  por estar lejos de mi,
e|-----------------------------------------------|
B|---------------------------13-13-13------------|
G|------------------------12b---------12b-12-10--|
D|-----------------------------------------------|
A|-8---7-8-5---7-8-3-----------------------------|
E|-----------------------------------------------|

  F5      A#5      C5                           F5     A#5      C5
  gracias por olvidar                           lo que nunca te di
e|---------------------------------------------------------------------|
B|---------------------------13-13-13--------------13--------13--------|
G|------------------------12b---------12b-12-10-12b---12b-12b---12b-10-|
D|---------------------------------------------------------------------|
A|-8---7-8-5---7-8-3---------------------------------------------------|
E|---------------------------------------------------------------------|

  "SOLO" mientras la segunda guitarra sigue haciendo el RIFF:
e|---------------------------------------------------
B|---------------------------------------------------
G|---------------------------------------------------
D|-s12-10s7s15-12-12s10----s12-10s7s15-12-12s10------
A|---------------------------------------------------
E|---------------------------------------------------

e|---------------------------------------------------
B|-------------------------------------------18v-18v-
G|---------------------------------------------------
D|-s12v-12v-12s14v-14v-14s15v-15v-15s17v-17v---------
A|---------------------------------------------------
E|---------------------------------------------------

e|---------------------------------------------------
B|-18v-18v-18v-18v-18v-18s15v-15v--15v-15v--15v-15v--
G|---------------------------------------------------
D|---------------------------------------------------
A|---------------------------------------------------
E|---------------------------------------------------

RIFF
No me importa si estas
con tu fuckin doctor
con el 10 de madrid
una estrella de rock
con Don Vito,Gaviria
con el diablo o con dios

  F5      A#5       C5
  Gracias por no volver
e|-----------------------------------------------|
B|---------------------------13-13-13------------|
G|------------------------12b---------12b-12-10--|
D|-----------------------------------------------|
A|-8---7-8-5---7-8-3-----------------------------|
E|-----------------------------------------------|
  F5     A#5      C5
  por estar lejos de mi,
e|-----------------------------------------------|
B|---------------------------13-13-13------------|
G|------------------------12b---------12b-12-10--|
D|-----------------------------------------------|
A|-8---7-8-5---7-8-3-----------------------------|
E|-----------------------------------------------|
  F5      A#5      C5                           F5     A#5      C5
  gracias por olvidar                           lo que nunca te di
e|---------------------------------------------------------------------|
B|---------------------------13-13-13--------------13--------13--------|
G|------------------------12b---------12b-12-10-12b---12b-12b---12b-10-|
D|---------------------------------------------------------------------|
A|-8---7-8-5---7-8-3---------------------------------------------------|
E|---------------------------------------------------------------------|

FINAL: siguiendo los mismos acordes del estribillo.
A|-8---7-8-5---7-8-3--|x4

Creo que esta bastante bien sacada, espero que les sirva
cualquier cosa 
Suggest correction
Give kudos to tab author, rate the tab!
1 2 3 4 5
comments
print report bad tab
guest
Wanna post a correction for this tab? Suggest correction