Oops, an error
Loading. Please wait.

Hay Momentos Bass Tab

43 views 1 this week
no commentswrite comment
1 2 3 4 5
3 more votes to show rating
add to favorites
launch autoscroll
font size
0
reset
guitar tuner
Autoscroll
slow
fast
+/-
esc
set tempo
stop
Help us to improve Ultimate-Guitar.com Take our survey!
×
HAY MOMENTOS(Vivo Luna Park)


El bajo entra con este solo en la mitad de la canción

1/-----9-10-10-9----9-10-12-9----9-10-10-9----------------
2/--10-----------10-----------10-----------12-10-9-10-----
3/--------------------------------------------------------
4/------------------------------------------------------8-


Sigue hasta el final
1/--------------------------------------------------------
2/--------------------------------------------------------
3/-0000000-------------33333333---(22222222)--------------
4/---------0-11111111--------------33333333---------------

En la ultima termina con esto
4/--33-44-5---


Esta es la versión en vivo, escúchenla así se guían
Suggest correction
Give kudos to tab author, rate the tab!
1 2 3 4 5
comments
print report bad tab
guest
You may want to rate the tab now too:
select rating
Wanna post a correction for this tab? Suggest correction