Oops, an error
Loading. Please wait.

Hay Momentos Tab

92 views 1 this week
no commentswrite comment
1 2 3 4 5
3 more votes to show rating
add to favorites
×
Save as Personal and add changes to this tab that will be seen only by you. Learn more ›
×
You can save this tab as Personal to edit and correct it or add notes. All changes will be seen only by you. Learn more »
save as personal
new!
launch autoscroll
font size
0
reset
how to read this tab
guitar tuner
Autoscroll
slow
fast
+/-
esc
set tempo
stop
[INTRO] C-C/F x4

e|-------------|--|
B|--1-1----1---|--|
G|--0-0---0-0--|x2|
D|------3~-----|x2|
A|-3-----------|--|
E|-------------|--|

cuando entra la 2da guitarra cambia levemente:

e|------------|--|
B|---1----1---|--|
G|--0----0-0--|x2|
D|-2----3~----|x2|
A|-3----------|--|
E|------------|--|

[VERSO]

   F          C          F          C
e|--------------------------------------------
B|-1~--1~---------1~-----1~--1~---------1~----
G|-2~-2--2----0~-0--0----2~-2--2----0~-0--0---
D|-3~-----3-0-2~-----2-0-3~-----3-0-2~-----2-0
A|------------3~--------------------3~--------
E|--------------------------------------------

   F          C   C/B  Am    G
e|--------------------------------|
B|-1~--1~-------1----1----1----3--|
G|-2~-2--2-------0----0----2----0-|
D|-3~-----3-0--2----0----2--------|
A|------------3----2----0-----2---|
E|---------------------------3----|

F                        C
No me despiertes cuando vengas
F                  C
y no me hables al oído
F                      C
ya no me sirven tus palabras
 C/B         Am       G           C-C/Fx2
apague el sueño demasiado temprano

F                       C
Dejé una carta en la mesa
F                 C
con muy poca lucidez
F                     C
pero el amor no se olvida
C/B        Am    G             C-C/Fx2
toda mi vida rendida a tus pies

[ESTRIBILLO]

      Am                      F
Hay momentos que no recuerdo nada
       C                       G  e|-77-55-77-|
hay momentos que no puedo olvidar
      Am                       F
hay momentos que por las madrugadas
        Am                     G  e|-77-55-77-|
me arrepiento y empiezo a temblar

[VERSO]

Cinco segundos de gracia
y mil horas sin razón
sequé mis lagrimas en espejos fríos
y soy la sombra de ayer

[ESTRIBILLO]

Hay momentos que no recuerdo nada
hay momentos que no puedo olvidar
hay momentos que por la madrugada
me arrepiento y empiezo a temblar

[VERSO]

No me despiertes cuando vengas
y no me hables al oído
ya no me sirven tus palabras
apague el sueño demasiado temprano

termina en C


cualquier cosa me mandan mail a lalos_boca20@
Aguante el rock n' roll y nada mas,
cuanto tarado que no entiende y te la quiere contar!
Suggest correction
Give kudos to tab author, rate the tab!
1 2 3 4 5
comments
print report bad tab
guest
Wanna post a correction for this tab? Suggest correction