Oops, an error
Loading. Please wait.

Josefina Tab

24 views 1 this week
no commentswrite comment
1 2 3 4 5
3 more votes to show rating
add to favorites
launch autoscroll
font size
0
reset
how to read this tab
guitar tuner
Autoscroll
slow
fast
+/-
esc
set tempo
stop
Help us to improve Ultimate-Guitar.com Take our survey!
×
ESTA ES LA VERSION DE EL CD EL "ROCK DE MI VIDA" (EN LA QE TOCA
TAMBIEN HOMBRE DE LAPLATA Y MR JONES)

ACA DEJOO LAS REFERENCIAS Y ABAJOO LA LETRA Y COMO TOCARLO ;)

LA LETRA "h" minuscula (ARRASTRAR) ;)


1---------------------
6---------------------
2---------------------
3--------------------- RIFF 1
4-3-3h5---------------
5-1-1h3--5-5--5-5-----
6----------3-3--3-3---

1---------------------
2---------------------
3-3-4-4-5-5-5-5------- RIFF 2 (SIEMPRE x2)
4-3-4-4h5-5-5-5-------
5-1-2-2h3-3-3-3-------
6---------------------

1------------------------------
2------------------------------
3-3-4-4-7-7-7-7--7-6-4-5-5-5-5-         RIFF 3 (SIEMPRE x2)
4-3-4-4h7-7-7-7--7-6-4h5-5-5-5-
5-1-2-2h5-5-5-5--5-4-2h3-3-3-3-
6------------------------------

.........


INTRO:
1---------------------
2---------------------
3-3-3-5--------------- X 4
4-3-3h5--5-5--5-5-----
5-1-1h3--5-5--5-5-----
6--------3-3--3-3-----


RIFF 1
 Ven aqui, dónde vas
                                RIFF 2
esta noche yo tengo que..     salir a tocar.. a tocar
                      RIFF 1
ante mucha gente...         mucha gente..
RIFF 3
y si vos no estas.. que es lo que hace mi mente


RIFF 1

RIFF 1
cuando estoy en acción
algo claro y muy fresco
RIFF 2
se me acerca y me ilumina

RIFF 1


RIFF 3                                          RIFF 1
no se que nombre ponerle.. està la policia...

RIFF 1
Josefina.. josefinaa.. (REPITE HASTA QE TERMINA)..


Guasones..


emaa_gonnet@
Suggest correction
Give kudos to tab author, rate the tab!
1 2 3 4 5
comments
print report bad tab
guest
You may want to rate the tab now too:
select rating
Wanna post a correction for this tab? Suggest correction