Oops, an error
Loading. Please wait.

Magdalena Chords

version 1
version 1

Whole song

43 views 1 this week
no commentswrite comment
1 2 3 4 5
3 more votes to show rating
add to favorites
launch autoscroll
font size
0
reset
transpose
0
reset
display chords
guitar tuner
Autoscroll
slow
fast
+/-
esc
set tempo
stop
Help us to improve Ultimate-Guitar.com Take our survey!
×
Todo el tema con G - D - C 

Caminando, así la conocí, 
En un barrio de Quilmes triste y color gris.
Ella estaba rodeada de chapas, la buscaba sin pensar,
Por las noches, por las madrugadas,
la buscaba sin pensar.
La primera cita no hubo tanto que insistir,
con un ramo de $20 la invité a salir,
viernes, sábados, solíamos estar,
con el tiempo te aseguro que me estuve por casar.

Magdalena, Magdalena,
dulce Magdalena aún estás
tan hermosa, tan delirante
con tu acento de mujer fatal.

Cuando..
acercaba mi cabeza a su trono de cristal
reflejaba..
un gato alienado con pocas ganas de parar de tomar,
hoy ya no le sigo el paso
pero te engañaría si te digo que
no la extraño, no, no la amo, no,
y es por eso que vuelvo a Quilmes cada mes.

Magdalena, Magdalena,
dulce Magdalena aún estás
tan hermosa, tan delirante
con tu acento de mujer fatal.


Punteo Final (con Slide)

E|-----------------|---------------------------|
B|-----------------|---------------------------|
G|-9-7-9-7---------|-9-12-11-7-9-7-9-7---------|
D|---------9-11-11-|-------------------9-9-7-7-|
A|-----------------|---------------------------|
E|-----------------|---------------------------|

E|------------12-12-10-12-10----------|-12-15-14-10-12-|>
B|-10-10-10-12---------------12-14-14-|----------------|>
G|------------------------------------|----------------|>
D|------------------------------------|----------------|>
A|------------------------------------|----------------|>
E|------------------------------------|----------------|>

>E|-10-12-10-------------|-----------------------|
>B|----------12-12-10-10-|-----------------------|
>G|----------------------|-7-7-10-10-7-5---------|
>D|----------------------|---------------7-5---5-|
>A|----------------------|-------------------8---|
>E|----------------------|-----------------------|
                                 Dos Veces

E|-----------------------------|
B|---------------------------7-|
G|-7-10-9-7-7-12-10-9-7-7-5----|
D|--------------------------7--|
A|-----------------------------|
E|-----------------------------|

Si quieren los demás punteos mandenmé un mail.
Aguante La Plata y los Guasones!
Suggest correction
Give kudos to tab author, rate the tab!
1 2 3 4 5
comments
print report bad tab
guest
You may want to rate the tab now too:
select rating
Wanna post a correction for this tab? Suggest correction