Oops, an error
Loading. Please wait.

Me Muero Tab

13 views 1 this week
no commentswrite comment
1 2 3 4 5
3 more votes to show rating
add to favorites
launch autoscroll
font size
0
reset
how to read this tab
guitar tuner
Autoscroll
slow
fast
+/-
esc
set tempo
stop
Help us to improve Ultimate-Guitar.com Take our survey!
×
Esta version es la de Rock de Mi vida, no la de la version Estudio

Bpm: 126

Intro:

     Riff E
e|-------------|--|-------||
b|-------------|--|---9---||
g|-9-9-7-9--9--|--|---9---||
d|-9-9-7-9--9--|x3|---7---||
a|-7-7-7-7--7--|--|---7---||
e|----------7--|--|-------||

Bajo:

g|------------|--|---2---||
d|-2-2-0-2----|x3|-------||
a|---------2--|--|-------||
E|------------|--|-------||


Verso 1:

Guitarra 1:

     Riff E         D5         A5       Riff E
e|-------------|----------|----------|------------|
b|-------------|----------|----------|------------|
g|-9-9-7-9--9--|----------|----------|9-9-7-9--9--|
d|-9-9-7-9--9--|----D5----|----A5----|9-9-7-9--9--|
a|-7-7-7-7--7--|----------|----------|7-7-7-7--7--|
e|----------7--|----------|----------|---------7--|

Bajo:

g|------------|--|-------------||
d|-2-2-0-2----|x3|-------------||
a|---------2--|--|555555000000-||
E|------------|--|------------0||

Riff E
Fui a golpearle la ventana al diablo
D5                      A5
Su cara chorreaba de miedo,
Riff E
Anoche fue largo

Riff E
Decidí llamar al Papa Juan Pablo II
D5                   A5
Y una vos me dijo "No hay nadie"
Riff E
"No hay papa, Facundo"

Estribillo:

Bajo:
  E             G D             A   E
g|--------------------------------------------------||
d|0-0-0-0-0-0-0-2-----------------------------------||
a|----------------7-5-7-7-10-10-10------------------||
E|---------------------------------10-10-10-10-10-12||

E                 G
Por que solo yo no puedo.
D              A
Si todo sigue así
                  E
O me caso o me muero

Verso 2:

Guitarra 1:

     Riff E         D5         A5       Riff E
e|-------------|----------|----------|------------|--||
b|-------------|----------|----------|------------|--||
g|-9-9-7-9--9--|----------|----------|9-9-7-9--9--|--||
d|-9-9-7-9--9--|----D5----|----A5----|9-9-7-9--9--|x2||
a|-7-7-7-7--7--|----------|----------|7-7-7-7--7--|--||
e|----------7--|----------|----------|---------7--|--||

Bajo:

g|------------|--|-------------|--||
d|-2-2-0-2----|x3|-------------|x2||
a|---------2--|--|555555000000-|--||
E|------------|--|------------0|--||


Riff E
Manejaba loco, un poco embriagado
D5                           A5
De pronto el fucking gallo nena,
Riff E
ya estaba al lado

Riff E
Se bajo, se acerco si me hablo no escuche yo tenía..
A5                  D5
a Pappo a todo volumen
Riff E
El rock de mi vida.


Estribillo:

Bajo:

  E             G D             A   E
g|--------------------------------------------------||
d|0-0-0-0-0-0-0-2-----------------------------------||
a|----------------7-5-7-7-10-10-10------------------||
E|---------------------------------10-10-10-10-10-12||

E                 G
Por que solo yo no puedo.
D              A
Si todo sigue así
                  E
O me caso o me muero

Solo 1:

Sobre: E, A, D

Verso 3:

Guitarra 1:

     E5          D5         A5         E5
e|----------|----------|----------|---------||
b|----------|----------|----------|---------||
g|----------|----------|----------|---------||
d|---E5-----|----D5----|----A5----|----E5---||
a|----------|----------|----------|---------||
e|----------|----------|----------|---------||
PM.............................................

E5
Las hermanas Droopy no son oro en polvo
D5                  A5
Juntita la dos en mi cama
E5
Un bruto jolgorio

Verso 4:

Guitarra 1:

     Riff E         D5         A5       Riff E
e|-------------|----------|----------|------------|
b|-------------|----------|----------|------------|
g|-9-9-7-9--9--|----------|----------|9-9-7-9--9--|
d|-9-9-7-9--9--|----D5----|----A5----|9-9-7-9--9--|
a|-7-7-7-7--7--|----------|----------|7-7-7-7--7--|
e|----------7--|----------|----------|---------7--|

Bajo:

g|------------|--|-------------||
d|-2-2-0-2----|x3|-------------||
a|---------2--|--|555555000000-||
E|------------|--|------------0||
Riff E
Julianita tiene frió y yo la receta
D5                  A5
Disparo mi aceite caliente
RiffE
En sus buen par de tetas
E5
nuevas!

Estribillo:

Bajo:

  E             G D             A   E
g|--------------------------------------------------||
d|0-0-0-0-0-0-0-2-----------------------------------||
a|----------------7-5-7-7-10-10-10------------------||
E|---------------------------------10-10-10-10-10-12||

E                 G
Por que solo yo no puedo.
D              A
Si todo sigue así
                  E
O me caso o me muero

Solo 2;

Guitarra 1:
Sobre: D5 C#5 A5


Bueno, esto es todo, la guitarra 2, en todo caso hace los
acordes normales.


Acordes de quintas:

|E5-|D5-|A5-|C#5|
|-x-|-x-|-x-|-x-|
|-x-|-x-|-x-|-x-|
|-9-|-7-|-x-|-6-|
|-9-|-7-|-7-|-6-|
|-7-|-5-|-7-|-4-|
|-x-|-x-|-5-|-x-|
Suggest correction
Give kudos to tab author, rate the tab!
1 2 3 4 5
comments
print report bad tab
guest
You may want to rate the tab now too:
select rating
Wanna post a correction for this tab? Suggest correction