Oops, an error
Loading. Please wait.

Mierda Bass

27 views 1 this week
no commentswrite comment
1 2 3 4 5
3 more votes to show rating
add to favorites
launch autoscroll
font size
0
reset
guitar tuner
×
Best way to learn
"Mierda"
Autoscroll
slow
fast
+/-
esc
set tempo
stop
Hoy con la ayuda de mi profe de bajo saque este tema...
aca se los dejo, no estoy seguro del estribillo nomas...


[Figura 1]

G|-------------------------------|
D|------0-2--------0---0-2-------|
A|----2-----2----2---2-----------|
E|--0---------0------------0-----|


[Figura 2]

G|-------------------------------|
D|------2-4--------2---2-4-------|
A|----4-----4----4---4-----------|
E|--2---------2------------2-----|


[Estribillo]


G|-------------------------------|
D|-------------------------------|
A|-2-2-2-2-2-2-2-2-2-2-2-2-2-2-2-|
E|-------------------------------|

La figura 1 es la base de todo el tema, la 2 es una variacion
que hace en algunos momentos de la cancion... escuchando la cancion
se daran cuenta... en esas variaciones reemplacen el ultimo E por
el primer F# de sus respectivas figuras, y viceversa cuando retoman...


que lo disfriten, saludos!
Suggest correction
Give kudos to tab author, rate the tab!
1 2 3 4 5
comments
print report bad tab
guest
You may want to rate the tab now too:
select rating
Wanna post a correction for this tab? Suggest correction