Oops, an error
Loading. Please wait.

My Love Tab

version 2
version 2

Whole song

10 views 1 this week
no commentswrite comment
1 2 3 4 5
3 more votes to show rating
add to favorites
launch autoscroll
font size
0
reset
how to read this tab
guitar tuner
Autoscroll
slow
fast
+/-
esc
set tempo
stop
Help us to improve Ultimate-Guitar.com Take our survey!
×
E--- 3/8^^ ------8--7h8-7-------------------3/8^^ ------8--7h8--7------------------------------
B----------------------------8---5/10^^ -------------------------------8--5/10^^ ---10/13---12-
G----------------------------------------------------------------------------------------------
D----------------------------------------------------------------------------------------------
A----------------------------------------------------------------------------------------------
E----------------------------------------------------------------------------------------------

Al mismo tiempo se hace este arpegio que se continua en las estrofas:

                 C                     C/B                Am                    G9?
E----------------------------------------------------------------------------------------------
B-----------1----------------1----------------1-----------------1- 0--------------------------
G---------0---0-----------0---0---0-------2---2-------------0------0------------------------
D-------2-------2-------2-------2-------2--------2---------0---------0-----------------------
A-0---3-----------0--2---------------0--------------------------------------------------------
E-------------------------------------------------------0---3-----------------------------------

C                     C/B                Am                    G9?
Todas las mañanas iguales, peleando como animales
C                     C/B                Am                    G9?
de la lucha libre y la guerra, de esa vieja rutina que aterra
C                     C/B                Am                    G9?
dos corazones dolidos, una vida sin sentido, y un triste silencio que crece
C                     C/B                Am                    G9?
esta golpeando la puerta...


Arpegio solo

C                     C/B                Am                    G9?

Juro que nunca jamás, quise lastimarte
C                     C/B                Am                    G9?
siempre que trato de estar, no estoy en ninguna parte,
C                     C/B                Am                    G9?
ocho primaveras en vano, todo es diferente
C                     C/B                Am                    G9?
hay que escribir con la pluma entre dientes, cuchillo en la mano...


F              A#                       F
   Y quiero enloquecerme de amor
A#                     G#
Como esa noche que te vi
              G                               G#
Y no dude en acostarme con vos
    C     G
Mi amor...


Punteo del principio

C                     C/B                Am                    G9?
puedo gritarle a luna que como vos no hay ninguna
C                     C/B                Am                    G9?
y si alguna noche te veo, veras lo malo y bueno
C                     C/B                Am                    G9?
dicen que pasado pisado, yo no me atrevo a pisarlo
C                     C/B                Am                    G9?
porque las espinas me duelen, la noche el alcohol me ganaron...

F              A#                       F
   Y quiero enloquecerme de amor
A#                     G#
Como esa noche que te vi
              G                               G#
Y no dude en acostarme con vos
    C     G
Mi amor...

Despues sigue con el arpegio del principio. El punteo del medio es mas o menos el siguiente:


E-------------------------------------------------------------------------------------------
B----------------------------------------------------------8--------------------------------
G--7b9^^--9b7-5-7b9^^-9b7-5-7b9^^---7b9-7b9---7b--7^^--------7/9-12-9-12/14-12-12-----------
D-------------------------------------------------------------------------------------------
A-------------------------------------------------------------------------------------------
E-------------------------------------------------------------------------------------------

E-------------------------------------------------------------------------------------------
B--10-13-12------------------13--------------------------13-15-15b17-13^^-----15b17-15-13---
G-------------12-12-9-12b14--14b12---------12-14-14-----------------------------------------
D-----------------------------------------12h14---------------------------------------------
A-------------------------------------------------------------------------------------------
E-------------------------------------------------------------------------------------------


E----------------------------15---------15-------15-----------------------------------------
B-15^^---------13-15b17----15b17---15b17----17b15-13-15-13-15b17-15-13-13^^-----------------
G--------12h14------------------------------------------------------------------------------
D-------------------------------------------------------------------------------------------
A-------------------------------------------------------------------------------------------
E-------------------------------------------------------------------------------------------

F              A#                       F
   Y quiero enloquecerme de amor
A#                     G#
Como esa noche que te vi
              G                               G#
Y no dude en acostarme con vos
    C     G
Mi amor...


este es el original.... pasado por el mismo jose tedesco...

no hagan caso a la otra q aparece... cualquier duda;)
Suggest correction
Give kudos to tab author, rate the tab!
1 2 3 4 5
comments
print report bad tab
guest
You may want to rate the tab now too:
select rating
Wanna post a correction for this tab? Suggest correction